Oops, an error
Loading. Please wait.

Quizás Tal Vez Tab

25 views 1 this week
no commentswrite comment
1 2 3 4 5
3 more votes to show rating
add to favorites
launch autoscroll
font size
0
reset
how to read this tab
guitar tuner
×
Best way to learn
"Quizás Tal Vez"
Autoscroll
slow
fast
+/-
esc
set tempo
stop
Hola que tal aquí les traigo la forma correcta de como la toca el maestro
Gerardo
ya que las otras transcripciones no se me hacían del todo bien y pues
aquí la tienen disfrútenla


inintro... 2 veces
   G                     Am              C            G
E--3--3----3--3---------------------------------------3------------I
A----------------------0--0-----------0--3-------------------------I
D------------------------------------------------2------0h2--------I
G--0--0----0--0--------0--2-------2---0--0------0-0---0---0h2h0----I
B--0--3----0--3--------0--1--3-1h0----0--1-3-1h0------0------------I
e------------------------------------------------------------------I

   G
Quizás tal vez
      Am
si fueras a venir
      C
se iría todo el gris
       G
del miedo.

     G
No sé quizás
     Am
podría hasta cantar
     C
dejarme de rascar
       G
el suelo.

C                          Bm
Tal vez si un día regresaras aquí
Am                  G
le gritaría al mundo entero tu amor
C               Bm
y por las calle brincaría feliz
Am                    D               D4
como esos tontos que no saben del dolor

     G
no sé si yo
        Am
te viera una vez mas
        C
podría recordar
      G
el cielo

   G                     Am              C            G
E--3--3----3--3---------------------------------------3--------------I
A----------------------0--0-----------0--3---------------------------I
D------------------------------------------------2------0h2----------I
G--0--0----0--0--------0--2-------2---0--0------0-0---0---0h2h0------I
B--0--3----0--3--------0--1--3-1h0----0--1-3-1h0------0--------------I
e--------------------------------------------------------------------I


   G                      Am              C            G
E--3--3----3--3---------------------------------------3--------------I
A----------------------0--0-----------0--3---------------------------I
D------------------------------------------------2------0h2----------I
G--0--0----0--0--------0--2-------2---0--0------0-0---0----0-2-2h0---I
B--0--3----0--3--------0--1--3-1h0----0--1-3-1h0------0--------------I
e--------------------------------------------------------------------I


C                          Bm
Tal vez si un día regresaras aquí
Am                  G
le gritaría al mundo entero tu amor
C               Bm
y por las calle brincaría feliz
Am                    D               D4
como esos tontos que no saben del dolor

   G                  Am              C            G
E--3--3----3--3---------------------------------------3--------------I
A----------------------0--0-----------0--3---------------------------I
D------------------------------------------------2------0h2----------I
G--0--0----0--0--------0--2-------2---0--0------0-0---0----0-2-2h0---I
B--0--3----0--3--------0--1--3-1h0----0--1-3-1h0------0--------------I
e--------------------------------------------------------------------I
quizás tal vez         si vuelves junto a mi me baste con oír lo

siento


Hasta la siguiente vez...
Suggest correction
Give kudos to tab author, rate the tab!
1 2 3 4 5
comments
print report bad tab
guest
You may want to rate the tab now too:
select rating
Wanna post a correction for this tab? Suggest correction