Oops, an error
Loading. Please wait.

Tierra Mestiza Tab

91 views 3 this week
no commentswrite comment
1 2 3 4 5
3 more votes to show rating
add to favorites
×
Save as Personal and add changes to this tab that will be seen only by you. Learn more ›
×
You can save this tab as Personal to edit and correct it or add notes. All changes will be seen only by you. Learn more »
save as personal
new!
launch autoscroll
font size
0
reset
how to read this tab
guitar tuner
Autoscroll
slow
fast
+/-
esc
set tempo
stop
bueno esta cancion es muy buena, es para un cuarteto de guitarras, o bien
para un quinteto.

espero les agrade!!
comentarios les dejo mi correo: fernando_back154@
o tambien f3rock_music@
          

no estan acomodadas como quisiera pero escuchen la rola para
q le entiendan mejor!!
Los espacios q dejo indica q se tiene que dejar sonando.

  (1era guitarra)       XXXXXXX
1|----------|-------0---|12-12-10-12-10|12-----12|-10--------|-----------|E
2|----------|-----------|--------------|--13-13--|----12-----|-----------|B
3|----------|-----------|--------------|---------|-----------|-----------|D
4|----------|-----------|--------------|---------|-----------|-----------|g
5|----------|-----------|--------------|---------|-----------|-----------|a
6|----------|-----------|--------------|---------|-----------|-----------|e
  (2da guitarra)
1|----------|-------0---|8--8--7--8--7-|8-------8|-7---------|-----------|E
2|----------|-----------|--------------|--10-10--|---8-------|-----------|B
3|----------|-----------|--------------|---------|-----------|-----------|G
4|----------|-----------|--------------|---------|-----------|-----------|d
5|----------|-----------|--------------|---------|-----------|-----------|a
6|----------|-----------|--------------|---------|-----------|-----------|e
  (3ra guitarra)
1|-0---0----|-0---0-----|-0---0--------|-0---0---|-3---3-----|-3---3-----|E
2|--1---1---|--1---1----|--1---1-------|--1---1--|--3---3----|--3---3----|B
3|---2---2--|---2---2---|---2---2------|---2---2-|---4---4---|---4---4---|G
4|----------|-----------|--------------|---------|-----------|-----------|d
5|----------|-----------|--------------|---------|-----------|-----------|a
6|----------|-----------|--------------|---------|-----------|-----------|e
  (4ta guitarra)
1|----------|-----------|--------------|---------|-----------|-----------|E
2|----------|-----------|--------------|---------|-----------|-----------|B
3|----------|-----------|--------------|---------|-----------|-----------|G
4|----------|-----------|--------------|---------|-----------|-----------|d
5|----------|-0---------|--------------|---------|-----------|-----------|a
6|----------|-----------|--------------|---------|-3---------|-----------|e


1|-------0--|12-12-10-12-10|12------12-|-10------|-------0---|-8-8-7-8-7|E
2|----------|--------------|--13-13----|---------|-----------|----------|B
3|----------|--------------|-----------|---------|-----------|----------|D
4|----------|--------------|-----------|---------|-----------|----------|g
5|----------|--------------|-----------|---------|-----------|----------|a
6|----------|--------------|-----------|---------|-----------|----------|e

1|-------0--|8--8--7--8--7-|-8-------8-|-7-------|-------0---|-5-5-3-5-3|E
2|----------|--------------|---10-10---|---------|-----------|----------|B
3|----------|--------------|-----------|---------|-----------|----------|G
4|----------|--------------|-----------|---------|-----------|----------|d
5|----------|--------------|-----------|---------|-----------|----------|a
6|----------|--------------|-----------|---------|-----------|----------|e

1|-3---3----|-0---0--------|-0---0-----|-3---3---|-3---3-----|-1---1----|E
2|--3---3---|--1---1-------|--1---1----|--3---3--|--3---3----|--1---1---|B
3|---4---4--|---2---2------|---2---2---|---4---4-|---4---4---|---2---2--|G
4|----------|--------------|-----------|---------|-----------|----------|d
5|----------|--------------|-----------|---------|-----------|----------|a
6|----------|--------------|-----------|---------|-----------|----------|e

1|----------|--------------|-----------|---------|-----------|----------|E
2|----------|--------------|-----------|---------|-----------|----------|B
3|----------|--------------|-----------|---------|-----------|----------|G
4|----------|--------------|-----------|---------|-----------|----------|d
5|----------|-0------------|-----------|---------|-----------|----------|a
6|---------3|--------------|-----------|-3-------|---------3-|-1--------|e


1|-8------8-|-7---------|-------0---|-8-8-7-8-7-|-8-8-10-10-|-12--------|E
2|--10-10---|---9-------|-----------|-----------|-----------|-----------|B
3|----------|-----------|-----------|-----------|-----------|-----------|G
4|----------|-----------|-----------|-----------|-----------|-----------|d
5|----------|-----------|-----------|-----------|-----------|-----------|a
6|----------|-----------|-----------|-----------|-----------|-----------|e

1|-5-----5--|-4---------|-------0---|-5-5-3-5-3-|-5-5--7-7--|-5---------|E
2|---6-6----|---5-------|-----------|-----------|-----------|-----------|B
3|----------|-----------|-----------|-----------|-----------|-----------|D
4|----------|-----------|-----------|-----------|-----------|-----------|g
5|----------|-----------|-----------|-----------|-----------|-----------|a
6|----------|-----------|-----------|-----------|-----------|-----------|e

1|-1---1----|-0---0-----|-0---0-----|-1---1-----|-1---1-----|-0---0-----|E
2|--1---1---|--0---0----|--0---0----|--1---1----|--1---1----|--0---0----|B
3|---2---2--|---1---1---|---1---1---|---2---2---|---2---2---|---2---2---|G
4|----------|-----------|-----------|-----------|-----------|-----------|d
5|----------|-----------|-----------|-----------|-----------|-----------|a
6|----------|-----------|-----------|-----------|-----------|-----------|e

1|----------|-----------|-----------|-----------|-----------|-----------|E
2|----------|-----------|-----------|-----------|-----------|-----------|B
3|----------|-----------|-----------|-----------|-----------|-----------|G
4|----------|-----------|-----------|-----------|-----------|-----------|d
5|----------|-----------|-----------|-----------|-----------|-----------|a
6|----------|-0---------|---------0-|-1---------|-----------|-0---------|e


1|----------|-0-0---0---|-0-----0---|-----------|-----------|-0-0---0---|E
2|----------|-----3---3-|---1-1-----|-3-0-------|-----------|-----3---3-|B
3|----------|-----------|-----------|-----------|-----------|-----------|D
4|-------2--|-----------|-----------|-----------|--------2--|-----------|g
5|----------|-----------|-----------|-----------|-----------|-----------|a
6|----------|-----------|-----------|-----------|-----------|-----------|e

1|-4--------|-----------|-----------|-----------|-----------|-----------|E
2|----------|-1-1-0-1-0-|-1-----1---|-0---------|-----------|-1-1-0-1-0-|B
3|----------|-----------|---2-2-----|---0-------|-----------|-----------|G
4|-------2--|-----------|-----------|-----------|--------2--|-----------|d
5|----------|-----------|-----------|-----------|-----------|-----------|a
6|----------|-----------|-----------|-----------|-----------|-----------|e

1|-0---0----|-0---------|-0---------|-3---------|-3---------|-0---------|E
2|--0---0---|-1---------|-1---------|-0---------|-0---------|-1---------|B
3|---1---1--|-2---------|-2---------|-0---------|-0---------|-2---------|G
4|----------|-----------|-----------|-----------|-----------|-----------|d
5|----------|----0--0---|----0--0---|-----------|-----------|----0--0---|a
6|----------|-----------|-----------|----3--3---|----3--3---|-----------|e

1|----------|-----------|-----------|-----------|-----------|-----------|E
2|----------|-----------|-----------|-----------|-----------|-----------|B
3|rasgueo de|----Am-----|-----------|----G------|-----------|----Am-----|D
4|-huapango-|-----------|-----------|-----------|-----------|-----------|g
5|----------|-----------|-----------|-----------|-----------|-----------|a
6|----------|-----------|-----------|-----------|-----------|-----------|e


1|-0-----0--|-----------|-----------|-----------|-----------|-----------|E
2|---1-1----|-3---------|-----------|-1-1-0-1-0-|-1-----1---|-0---------|B
3|----------|-----------|-----------|-----------|---2-2-----|---1-------|G
4|----------|-----------|--------2--|-----------|-----------|-----------|d
5|----------|-----------|-----------|-----------|-----------|-----------|a
6|----------|-----------|-----------|-----------|-----------|-----------|e

1|----------|-----------|-----------|-----------|-----------|-----------|E
2|-1-----1--|-0---------|-----------|-----------|-----------|-----------|B
3|---2-2----|-----------|-----------|-2-2-0-2-0-|-2-----2---|-1---------|G
4|----------|-----------|--------2--|-----------|---3-3-----|---2-------|d
5|----------|-----------|-----------|-----------|-----------|-----------|a
6|----------|-----------|-----------|-----------|-----------|-----------|e

1|-0--------|-3---------|-3---------|-1---------|-1---------|-0---------|E
2|-1--------|-0---------|-0---------|-1---------|-1---------|-0---------|B
3|-2--------|-0---------|-0---------|-2---------|-2---------|-1---------|D
4|----------|-----------|-----------|-----------|-----------|-----------|g
5|----0-0---|-----------|-----------|-----------|-----------|-----------|a
6|----------|----3--3---|----3--3---|----1--1---|----1--1---|----0--0---|e

1|----------|-----------|-----------|-----------|-----------|-----------|E
2|----------|-----------|-----------|-----------|-----------|-----------|B
3|----------|-----G-----|-----------|-----F-----|-----------|-----E7----|G
4|----------|-----------|-----------|-----------|-----------|-----------|d
5|----------|-----------|-----------|-----------|-----------|-----------|a
6|----------|-----------|-----------|-----------|-----------|-----------|e


                                                    ///////
1|----------|-----------|-----------|-0-----|-----10h|12-12-10h12-12-10h|E
2|----------|-1-1-0-1-0-|-1-1--3-3--|-------|--------|------------------|B
3|----------|-----------|-----------|-------|--------|------------------|G
4|-------2--|-----------|-----------|-------|--------|------------------|d
5|----------|-----------|-----------|-------|--------|------------------|a
6|----------|-----------|-----------|-------|--------|------------------|e

1|----------|-----------|-----------|-------|------7h|8-8---7h8-8-----7h|E
2|----------|-----------|------0-0--|-------|--------|------------------|B
3|----------|-2-2-0-2-0-|-2-2-------|-2-----|-1------|------------------|D
4|-------2--|-----------|-----------|-------|--------|------------------|g
5|----------|-----------|-----------|-------|--------|------------------|a
6|----------|-----------|-----------|-------|--------|------------------|e

1|-0--------|-1---------|-1---------|-0-----|-0------|-0----------------|E
2|-0--------|-1---------|-1---------|-0-----|-0------|-1----------------|B
3|-1--------|-2---------|-2---------|-2-----|-1------|-0----------------|G
4|----------|-----------|-----------|-------|--------|------------------|d
5|----------|-----------|-----------|-------|--------|----3--3----------|a
6|----0--0--|----1--1---|----1--1---|--0--0-|---0--0-|------------------|e

1|----------|-----------|-----------|-------|--------|------------------|E
2|----------|-----------|-----------|-------|--------|--####-significa--|A
3|----------|-----F-----|-----------|-Esus4-|---E7---|-que-hace-lo------|G
4|----------|-----------|-----------|-------|--------|--mismo-que-------|d
5|----------|-----------|-----------|-------|--------|--la-tercera------|a
6|----------|-----------|-----------|-------|--------|------------------|e
 (5ta guitarra)(RITMO DE HUAPANGO)
1|----------|-----------|-----------|-------|--------|------C-----------|E


1|h12-12-10h12-12-13h---|7----------|--------12h|13-13-12h13-13-12h-----|E
2|----------------------|-----------|-----------|-----------------------|B
3|----------------------|-----------|-----------|-----------------------|D
4|----------------------|-----------|-----------|-----------------------|g
5|----------------------|-----------|-----------|-----------------------|a
6|----------------------|-----------|-----------|-----------------------|e

1|h8-8---7h8-8-----8p---|7----------|---------8h|10-10--8h10-10--8h-----|E
2|----------------------|-----------|-----------|-----------------------|B
3|----------------------|-----------|-----------|-----------------------|G
4|----------------------|-----------|-----------|-----------------------|d
5|----------------------|-----------|-----------|-----------------------|a
6|----------------------|-----------|-----------|-----------------------|e

1|-0--------0---------1h|3-3-2-3----|-----------|-1--------1------------|E
2|-1--------1-----------|--------3--|-0---------|-3--------3------------|B
3|-0--------0-----------|-----------|---0-------|-2--------2------------|G
4|----------------------|-----------|-----------|-------0-------0-------|d
5|-----3----------3-----|-----------|-----------|-----------------------|a
6|----------------------|-----------|-----------|-----------------------|e

1|----------------------|--3---3---3|--3---3---3|-----------------------|E
2|----------------------|--0---0---0|--0---0---0|-----------------------|B
3|------####------------|--0---0---0|--0---0---0|----------####---------|D
4|----------------------|--------0--|--------0--|-----------------------|g
5|----------------------|----2------|----2------|-----------------------|a
6|----------------------|3----------|3----------|-----------------------|e

1|----------------------|-----G-----|-----------|-----------Dm----------|E


1|h13-13-12h13-15h--|17---------|--------15h|17-17-15h17-17-15h-------|E
2|------------------|-----------|-----------|-------------------------|B
3|------------------|-----------|-----------|-------------------------|D
4|------------------|-----------|-----------|-------------------------|g
5|------------------|-----------|-----------|-------------------------|a
6|------------------|-----------|-----------|-------------------------|e

1|h10-10-8h10-10-10p|8----------|--------12h|13-13-12h13-13-12h-------|E
2|------------------|-----------|-----------|-------------------------|B
3|------------------|-----------|-----------|-------------------------|G
4|------------------|-----------|-----------|-------------------------|d
5|------------------|-----------|-----------|-------------------------|a
6|------------------|-----------|-----------|-------------------------|e

1|-1-------1------3h|5-5-4-5-0--|-----------|-1--------1--------------|E
2|-3-------3--------|-----------|1----------|-1--------1--------------|B
3|-2-------2--------|-----------|--2--------|-2--------2--------------|G
4|-----0--------0---|-----------|-----------|-------------------------|d
5|------------------|-----------|-----------|-------------------------|a
6|------------------|-----------|-----------|-----1-----------1-------|e

1|------------------|--0---0---0|-0----0---0|-------------------------|E
2|------------------|--1---1---1|-1----1---1|-------------------------|B
3|-----####---------|--2---2---2|-2----2---2|---------####------------|D
4|------------------|--------2--|--------2--|-------------------------|g
5|------------------|0---3------|0---3------|-------------------------|a
6|------------------|-----------|-----------|-------------------------|e

1|------------------|----Am-----|-----------|------------F------------|E


1|h17-17-15h17-17-17p|15---------|--------12h|13-13-12h13-12h----------|E
2|-------------------|-----------|-----------|-------------------------|B
3|-------------------|-----------|-----------|-------------------------|D
4|-------------------|-----------|-----------|-------------------------|g
5|-------------------|-----------|-----------|-------------------------|a
6|-------------------|-----------|-----------|-------------------------|e

1|h13-13-12h13-13-13p|12---------|---------8h|10-10-8h10-10-8h---------|E
2|-------------------|-----------|-----------|-------------------------|B
3|-------------------|-----------|-----------|-------------------------|G
4|-------------------|-----------|-----------|-------------------------|d
5|-------------------|-----------|-----------|-------------------------|a
6|-------------------|-----------|-----------|-------------------------|e

1|-1------1--------5p|3-3-2-3-0--|-----------|-1-------1---------------|E
2|-1------1----------|-----------|-1---------|-3-------3---------------|B
3|-2------2----------|-----------|---0-------|-2-------2---------------|G
4|-------------------|-----------|-----------|-----0--------0----------|d
5|-------------------|-----------|-----------|-------------------------|a
6|----1-------1------|-----------|-----------|-------------------------|e

1|-------------------|--0---0---0|--0---0---0|-------------------------|E
2|-------------------|--1---1---1|--1---1---1|-------------------------|B
3|-----####----------|--0---0---0|--0---0---0|-------####--------------|D
4|-------------------|-----------|-----------|-------------------------|g
5|-------------------|3----------|3----------|-------------------------|a
6|-------------------|----0---3--|----0---0--|-------------------------|e

1|-------------------|----C------|-----------|--------Dm---------------|E


                                              >>>>>>>>>
1|h13-13-12h13-13-17p|16---------|-----------|E
2|-------------------|-----------|-----------|B
3|-------------------|-----------|-----------|D
4|-------------------|-----------|-----------|g
5|-------------------|-----------|-----------|a
6|-------------------|-----------|-----------|e

1|h10-10-8h10-10-13p-|12---------|-----------|E
2|-------------------|-----------|-----------|B
3|-------------------|-----------|-----------|G
4|-------------------|-----------|-----------|d
5|-------------------|-----------|-----------|a
6|-------------------|-----------|-----------|e

1|-1------1----------|0----------|-0---------|E
2|-3------3----------|0----------|-0---------|B
3|-2------2----------|1----------|-1---------|G
4|----0--------0-----|-----------|-0---------|d
5|-------------------|-----------|-2---------|a
6|-------------------|-----------|-0---------|e

1|-------------------|--0---0---0|--0---0---0|E
2|-------------------|--0---0---0|--0---0---0|B
3|------####---------|--1---1---1|--1---1---1|D
4|-------------------|-----------|-----------|g
5|-------------------|--------2--|--------2--|a
6|-------------------|0---4------|-0---4-----|e

1|-------------------|----E7-----|-----------|E


SE REPITE DESDE XXX
(1 Y 2 GUITARRA SE TOCA UNA OCTAVA ABAJO)


1|10--------|-----------|8----------|-----------|6----------|-----------|E
2|10--------|-----------|8----------|-----------|6----------|-----------|B
3|10--------|-----------|9----------|-----------|7----------|-----------|D
4|----------|-----------|-----------|-----------|-----------|-----------|g
5|----------|-----------|-----------|-----------|-----------|-----------|a
6|----------|-----------|-----------|-----------|-----------|-----------|e

1|1---------|-----------|0----------|-----------|1----------|-----------|E
2|3---------|-----------|1----------|-----------|3----------|-----------|B
3|2---------|-----------|0----------|-----------|3----------|-----------|G
4|4---------|-----------|2----------|-----------|3----------|-----------|d
5|----------|-----------|3----------|-----------|1----------|-----------|a
6|----------|-----------|-----------|-----------|-----------|-----------|e

1|----------|-----------|-----------|-----------|-----------|-----------|E
2|3-3---3-3-|3-3---3-3--|1-1---1-1--|1-1---1-1--|-----------|-----------|B
3|----------|-----------|-----------|-----------|3-3---3-3--|3-3---3-3--|G
4|0-0---0-0-|0-0---0-0--|-----------|-----------|-----------|-----------|d
5|----------|-----------|3-3---3-3--|3-3---3-3--|1-1---1-1--|1-1---1-1--|a
6|----------|-----------|-----------|-----------|-----------|-----------|e

1|----------|-----------|-----------|-----------|-----------|-----------|E
2|----------|-----------|-----------|-----------|-----------|-----------|B
3|----------|-----------|-----------|-----------|-----------|-----------|D
4|3p2--0----|---0-2-3---|-2p0-------|-----0-2---|-----------|---------0-|g
5|----------|-0---------|------3----|---3-------|-5p3-------|---1--3----|a
6|----------|-----------|-----------|-3---------|-------6---|-1---------|e

1|----Dm----|-----------|-----C-----|-----------|----A#-----|-----------|E


1|5-5---6-6-|8----------|-----------|-----5-6---|8----------|-------5---|E
2|5-5---6-6-|8----------|-----------|---8-------|-----------|---6-8-----|B
3|6-6---7-7-|9----------|-----------|-7---------|-----------|-5---------|D
4|----------|-----------|-----------|-----------|-----------|-----------|g
5|----------|-----------|-----------|-----------|-----------|-----------|a
6|----------|-----------|-----------|-----------|-----------|-----------|e

1|----------|0----------|-6p5-------|-----------|5p3--------|-----------|E
2|2-2---3-3-|1----------|-----8-----|-----------|-----6-----|-----------|B
3|2-2---3-3-|0----------|-----------|-----------|-----------|-----------|G
4|2-2---3-3-|2----------|-----------|-----------|-----------|-----------|d
5|0-0---1-1-|3----------|-----------|-----------|-----------|-----------|a
6|----------|-----------|-----------|-----------|-----------|-----------|e

1|----------|-----------|-3---------|-----------|1----------|-----------|E
2|----------|1----------|-3---------|-----------|1----------|-----------|B
3|-2-2--3-3-|-----------|-3---------|-----------|2----------|-----------|G
4|----------|-----------|-5---------|-----------|3----------|-----------|d
5|-0-0--1-1-|3----------|-5---------|-----------|3----------|-----------|a
6|----------|-----------|-3---------|-----------|1----------|-----------|e

1|----------|-----------|-----------|-----------|-----------|-----------|E
2|----------|-----------|-----------|-----------|-----------|-----------|B
3|----------|-----------|-----------|-----------|-----------|-----------|D
4|------0-0-|-2---------|-----------|-----------|-----------|-----------|g
5|-4-4------|-----------|------5----|-------5---|--0-3------|--0-3------|a
6|----------|-----------|-3-6-------|-3--6------|1----------|1----------|e

1|-A----A#--|--C--------|-silencio--|-----------|-----------|-----------|E


1|-7--------|--------3--|-----------|-----------|-----------|-----5-6---|E
2|----------|---5-6-----|-3-3--5-5--|-----------|-----------|---8-------|B
3|----------|-4---------|-----------|-6---------|-----------|-7---------|D
4|----------|-----------|-----------|-----------|-----------|-----------|g
5|----------|-----------|-----------|-----------|-----------|-----------|a
6|----------|-----------|-----------|-----------|-----------|-----------|e

1|----------|-----------|-----------|-5---------|-6p5-------|-----------|E
2|-8p6--5---|-----------|-6-6--8-8--|-----------|------8----|-----------|B
3|----------|-----------|-----------|-----------|-----------|-----------|G
4|----------|-----------|-----------|-----------|-----------|-----------|d
5|----------|-----------|-----------|-----------|-----------|-----------|a
6|----------|-----------|-----------|-----------|-----------|-----------|e

1|-0--------|-----------|-1-1--0-0--|-0---------|-3---------|-----------|E
2|-0--------|-----------|-3-3--1-1--|-2---------|-3---------|-----------|B
3|-0--------|-----------|-2-2--0-0--|-0---------|-3---------|-----------|G
4|-2--------|-----------|-0-0-------|-2---------|-5---------|-----------|d
5|-2--------|-----------|------3-3--|-0---------|-5---------|-----------|a
6|-0--------|-----------|-----------|-----------|-3---------|-----------|e

1|----------|-----------|-----------|-----------|-----------|-----------|E
2|----------|-----------|-----------|-----------|-----------|-----------|B
3|----------|-----------|-----------|-----------|-----------|-----------|D
4|----------|-----------|-0-0-------|-----------|-----------|-----------|g
5|------2---|------2----|------3-3--|-0---------|------5----|------5----|a
6|-0-3------|-0-3-------|-----------|-----------|-3-6-------|-3-6-------|e
                                        (aqui empieza el rasgueo)
1|----------|-----------|-Dm----C---|----A7-----|---Gm------|-----------|E


1|-8--------|-------5---|-7---------|--------3--|-1-1---2-2-|-0---------|E
2|----------|---6-8-----|-----------|---5-6-----|-----------|-----------|B
3|----------|-5---------|-----------|-4---------|-----------|-----------|D
4|----------|-----------|-----------|-----------|-----------|-----------|g
5|----------|-----------|-----------|-----------|-----------|-----------|a
6|----------|-----------|-----------|-----------|-----------|-----------|e

1|-5p3------|-----------|-----------|-----------|-5-5---5-5-|-4---------|E
2|------6---|-----------|-8p6--5----|-----------|-----------|-----------|B
3|----------|-----------|-----------|-----------|-----------|-----------|G
4|----------|-----------|-----------|-----------|-----------|-----------|d
5|----------|-----------|-----------|-----------|-----------|-----------|a
6|----------|-----------|-----------|-----------|-----------|-----------|e

1|-1--------|-----------|-0---------|-----------|-1-1---2-2-|-0---------|E
2|-1--------|-----------|-0---------|-----------|-3-3---0-0-|-0---------|B
3|-2--------|-----------|-0---------|-----------|-2-2---2-2-|-1---------|G
4|-3--------|-----------|-2---------|-----------|-0-0---1-1-|-0---------|d
5|-3--------|-----------|-2---------|-----------|-------2-2-|-2---------|a
6|-1--------|-----------|-0---------|-----------|-----------|-0---------|e

1|----------|-----------|-----------|-----------|-----------|-----------|E
2|----------|-----------|-----------|-----------|-----------|-----------|B
3|----------|-----------|-----------|-----------|-----------|-----------|D
4|----------|-----------|-----------|-----------|-0-0-------|-----------|g
5|---0-3----|---0-3-----|-----2-----|-----2-----|-------2-2-|-----------|a
6|-1--------|-1---------|-0-3-------|-0-3-------|-----------|-0---------|e

1|-----F----|-----------|----Em-----|-----------|-Dm----B7--|-E7--------|E


1|---------0|E
2|----------|B
3|----------|D
4|----------|g
5|----------|a
6|----------|e

1|---------0|E
2|----------|B
3|----------|G
4|----------|d
5|----------|a
6|----------|e

1|----------|E
2|----------|B
3|----------|G
4|----------|d
5|----------|a
6|----------|e

1|----------|E
2|----------|B
3|----------|D       AQUI SE VA A REPETIR DESDE XXX HASTA >>>
4|-2-0------|g               Y FINALIZA CON ESTO:
5|------2---|a
6|----------|e

1|----------|E


1|--------12h|13-13-12h13-12h----------|E
2|-----------|-------------------------|B
3|-----------|-------------------------|D
4|-----------|-------------------------|g
5|-----------|-------------------------|a
6|-----------|-------------------------|e

1|---------8h|10-10-8h10-10-8h---------|E
2|-----------|-------------------------|B
3|-----------|-------------------------|G
4|-----------|-------------------------|d
5|-----------|-------------------------|a
6|-----------|-------------------------|e

1|-----------|-1-------1---------------|E
2|-1---------|-3-------3---------------|B
3|---0-------|-2-------2---------------|G
4|-----------|-----0--------0----------|d
5|-----------|-------------------------|a
6|-----------|-------------------------|e

1|--0---0---0|-------------------------|E
2|--1---1---1|-------------------------|B
3|--0---0---0|-------####--------------|D
4|-----------|-------------------------|g
5|3----------|-------------------------|a
6|----0---0--|-------------------------|e

1|-----------|--------Dm---------------|E


1|h13-13-12h13-13-17p|16---------|-----------|-12-------|E
2|-------------------|-----------|-----------|----------|B
3|-------------------|-----------|-----------|----------|D
4|-------------------|-----------|-----------|----------|g
5|-------------------|-----------|-----------|----------|a
6|-------------------|-----------|-----------|----------|e

1|h10-10-8h10-10-13p-|12---------|-----------|-9--------|E
2|-------------------|-----------|-----------|----------|B
3|-------------------|-----------|-----------|----------|D
4|-------------------|-----------|-----------|----------|g
5|-------------------|-----------|-----------|----------|a
6|-------------------|-----------|-----------|----------|e

1|-1------1----------|0----------|-0---------|-5--------|E
2|-3------3----------|0----------|-0---------|-2--------|B
3|-2------2----------|1----------|-1---------|-2--------|D
4|----0--------0-----|-----------|-0---------|-2--------|g
5|-------------------|-----------|-2---------|-0--------|a
6|-------------------|-----------|-0---------|----------|e
                                 (ralentando)
1|-------------------|--0---0---0|--0---0---0|----------|E
2|-------------------|--0---0---0|--0---0---0|----------|B
3|------####---------|--1---1---1|--1---1---1|----------|D
4|-------------------|-----------|-----------|----------|g
5|-------------------|--------2--|-----------|-0--------|a
6|-------------------|0---4------|-0---2--4--|----------|e

1|-------------------|----E7-----|-----------|----A-----|E


BUENO VOTEN POR ESTA ROLA, SUENA BASTANTE BIEN!!!!
ESCUCHEN PERCUSON IGUALMENTE DE GERARDO TAMEZ BUENISIMA!!!
Suggest correction
Give kudos to tab author, rate the tab!
1 2 3 4 5
comments
print report bad tab
guest
Wanna post a correction for this tab? Suggest correction