Oops, an error
Loading. Please wait.

Joven Pretendiente Chords

16 views 1 this week
no commentswrite comment
1 2 3 4 5
3 more votes to show rating
add to favorites
launch autoscroll
font size
0
reset
transpose
0
reset
display chords
guitar tuner
×
Best way to learn
"Joven Pretendiente"
Autoscroll
slow
fast
+/-
esc
set tempo
stop
Escúchenla para darle bien los tiempos,
lo dejo en acordes completos aunque se escucha mejor en
quintas.

A# G# G#-A#-G# D#              x2

D#                               A#     G
Me siento solo y triste y tú me dejas
                   Cm    Fm
De tu vida me alejaras
             G        Cm
Con el me olvidaras
                 G#
Pero recordaras
          A#           D#
Que destrozado aquí estoy
                     A#    G
Solo y triste tú me dejas
                             Cm    Fm
Un nuevo pretendiente tienes ya
             G       Cm
Con el me olvidaras
                 G#
Pero recordaras
          A#           D#
Que destrozado aquí estoy

          A#
No, no me borres
        G#              D#
De la belleza de tu corazón
           A#
No, no destroces
          C#       G#     D#
Este amor que siento por ti

 D#                        A#     G
Que solo y triste  tú me dejas
                   Cm    Fm
De tu vida me alejaras
             G        Cm
Con el me olvidaras
                 G#
Pero recordaras
          A#           D#
Que destrozado aquí estoy

          A#
No, no me borres
        G#              D#
De la belleza de tu corazón
           A#
No, no destroces
          C#       G#     D#
Este amor que siento por ti

E|-------------------------------------------|
B|-------------------------------------------|
G|-------------------------------------------|
D|---------------3---------------------------|
A|---6--5--3--5-----6-6------6--5--3--5--6---|
E|-4----------------------4------------------|

E|----------------------------------------------------|
B|----------------------------------------------------|
G|----------------------------------------------------|
D|---------------3------------------------------------|
A|---6--5--3--5-----6-6-----6--5--3--5--6--5--3--5--6-|
E|-4----------------------4---------------------------|

E|--------------------||
B|--------------------||
G|--------------------||
D|-8-8--8-8--8-8--8---||
A|-6-6--6-6--6-6--6---||
E|--------------------||

D#                        A#     G
Que solo y triste  tú me dejas
                   Cm   Fm
De tu vida me alejaras
             G        Cm
Con el me olvidaras
                 G#
Pero recordaras
          A#           D#
Que destrozado aquí estoy

                         A#
Muy solo y triste tú me dejas
Si tú me dejas
G#
Si tú me dejas

D#                        A#
Que solo y triste  tú me dejas
Si tú me dejas
G#
Si tú me dejas

D#                        A#
Que solo y triste  tú me dejas
Si tú me dejas
G#
Si tú me dejas

D#                        A#
Que solo y triste  tú me dejas
Si tú me dejas
G#              D#
Si tú me dejas

Nota: En la versión en vivo en lugar del Cm que se toca
antes del Fm, se toca un este pequeño bajeo

D|-----------------------------|
A|-3--5--6--5--3--5--6--5--3---|
E|-------------------------1---|

Cualquier duda, aclaración y/o petición
a israel_lz_021@
Suggest correction
Give kudos to tab author, rate the tab!
1 2 3 4 5
comments
print report bad tab
guest
You may want to rate the tab now too:
select rating
Wanna post a correction for this tab? Suggest correction