Oops, an error
Loading. Please wait.

Tu Eres Tab

8 views 1 this week
no commentswrite comment
1 2 3 4 5
3 more votes to show rating
add to favorites
launch autoscroll
font size
0
reset
how to read this tab
guitar tuner
Autoscroll
slow
fast
+/-
esc
set tempo
stop
Help us to improve Ultimate-Guitar.com Take our survey!
×
Cancion: Tu eres (acustica)

Intro


    C                                 Em
e|----------0----------------0----------------0-----------------0--------|
B|------1-----1---1------1-----1---1------0-----0---0-------0-----0---0--|
G|--------0-----0----------0-----0----------0-----0-----------0-----0----|
D|----2----------------2----------------2-----------------2--------------|
A|--3----------------3----------------2----------------2-----------------|
E|-----------------------------------------------------------------------|

    F                                 G
e|----------1----------------1----------------1----------------1----------|
B|------1-----1---1------1-----1---1------0-----0---0------0-----0---0----|
G|--------2-----2----------2-----2----------0-----0----------0-----0------|
D|----3----------------3----------------0----------------0----------------|
A|--3----------------3----------------2----------------2------------------|
E|------------------------------------------------------------------------|
                         x 6


Verso:

C              Em
Tu eres, como el universo
F              G
infinito para amar.

C                  Em
Tus ojos son, esos dos luceros
F                        G
que alumbran en mi obscuridad.

C          Em
Tu corazon es
F                         G
el sol que alumbra el amanecer

C Em F G

Verso 2:

C                      Em
Yo quisiera ser un planeta
F                       G
para esta cerca de ti, ¡oh si!

C Em F G

C               Em
Una estrella fugaz
F                 G
y escaparme al infinito...

C
Contigooooo
Em
oooooooooh
F           G
oooooooooh

C
Contigooooo
Em
oooooooooh
F           G
oooooooooh

C Em F G  x4

Verso:

C              Em
Tu eres, como el universo
F              G
infinito para amar.

C                  Em
Tus ojos son, esos dos luceros
F                        G
que alumbran en mi obscuridad.

C          Em
Tu corazon es
F                         G
el sol que alumbra el amanecer

C Em F G

Verso 2:

C                      Em
Yo quisiera ser un planeta
F                       G
para esta cerca de ti, ¡oh si!

C Em F G

C               Em
Una estrella fugaz
F                 G
y escaparme al infinito...

C
Contigooooo
Em
oooooooooh
F           G
oooooooooh

C
Contigooooo
Em
oooooooooh
F           G
oooooooooh

C Em F G

C
Laralala
Em
lalaralala
F
laralalala
G
lala

x5

Final:

     C     Em    F     G            C
e|---0--0--0--0--1--1--3--3---------0---|
B|---1--1--0--0--1--1--0--0---------1---|
G|---0--0--0--0--2--2--0--0---------0---|
D|---2--2--2--2--3--3--0--0---------2---|
A|---3--3--2--2--3--3--2--2---------3---|
E|---0--0--0--0--1--1--3--3-5-3-2-1-0---|

Es mi primera transcripcion y espero que este bien,
cualquier duda o sugerencia escriban a mi correo.

Saludos a la Voca 3!!!
Suggest correction
Give kudos to tab author, rate the tab!
1 2 3 4 5
comments
print report bad tab
guest
You may want to rate the tab now too:
select rating
Wanna post a correction for this tab? Suggest correction