Oops, an error
Loading. Please wait.

Cuéntame Bass Tab

56 views 1 this week
no commentswrite comment
1 2 3 4 5
3 more votes to show rating
add to favorites
launch autoscroll
font size
0
reset
guitar tuner
Autoscroll
slow
fast
+/-
esc
set tempo
stop
Hay muchas cosas que faltan mejorar en esta transcripción pero
lo pongo con la esperanza que la comunidad ayude a perfeccionarla.


Hola como estas como te ha ido....
Noto que has perdido algo de peso....

G /-------------------------------------/
D |-------------------------------------|
A |------------------4---4---4---4-7-4--|
E |-5---5---5---5-7----4-------4--------|
B /---5-------5-------------------------/
                                             x2

G /--------------------------------------/
D |--------------------------------9-----|
A |--2---2---2---2---5---5---7---7---7---|
E |----2---2---2-------5-------7---------|
B /--------------------------------------/


Debo confesar me hiciste daño....

G /--------------------------------------/
D |--------------------------------------|
A |---------------------------4----------|
E |-2---2-5-----2-5----5-2------5-2------|
B /---2-------2------------2-------------/

G /--------------------------------------/
D |-------------------------6------------|
A |-4---4-7----4-7---7-4------7-4--------|
E |---4------4-----------4---------------|
B /--------------------------------------/

G /--------------------------------------/
D |---------------------------4----------|
A |-2---2-5-----2-5----5-2------5-2------|
E |---2-------2------------2-------------|
B /--------------------------------------/

G /--------------------------------------/
D |-------7-----------------9------------|
A |-5---5---5---5-----7---7---7---7------|
E |---5-------5---------7-------7--------|
B /--------------------------------------/


Cuéntame...

G /---------------------------------------/
D |---------------------------------------|
A |-------7------------7------4---4-7-4---|
E |-5---5---5----5---5---5------4---------|
B /---5------------5----------------------/

G /----------------------------------------/
D |----------------------------------------|
A |---4---4-7-4----2---2-5-2----2---2-5-2--|    x2
E |----4------------2------------2---------|
B /----------------------------------------/

G /----------------------------------------/
D |-------7------------9-------------------|
A |-5---5---5----7---7---7-----------------|
E |---5------------7-------7-9-------------|
B /----------------------------------------/

Que lo disfruten!
Suggest correction
Give kudos to tab author, rate the tab!
1 2 3 4 5
comments
print report bad tab
guest
You may want to rate the tab now too:
select rating
Wanna post a correction for this tab? Suggest correction