Oops, an error
Loading. Please wait.

Donde Estarás Tab

version 2
version 2

Whole song

16 views 1 this week
no commentswrite comment
1 2 3 4 5
3 more votes to show rating
add to favorites
launch autoscroll
font size
0
reset
how to read this tab
guitar tuner
Autoscroll
slow
fast
+/-
esc
set tempo
stop
Help us to improve Ultimate-Guitar.com Take our survey!
×
Esta Rola se puede tocar con Capo en el 1er Traste,
pero tambien sin el C=..!

Intro:
    C                         Am
E---3-----0-------------0-----3-----0------------0---
B------3-----1----1--3-----1-----3-----1----1--3---1-
G----------------------------------------------------
D----------------------------------------------------
A----------------------------------------------------
E----------------------------------------------------

    Fm                      G7    Am
E---3-----0-----1--0------------------
B------3----1---------3--1--0--1------
G---------------------------------2---
D-------------------------------------
A---------------------------0--0--0---
E-------------------------------------

    Am                    F
Intentamos esconder la sonrisa de un ayer
      Am                 E          Am
intentamos escapar de los besos y el jugar
       C                    E
tal vez no te vuelva a ver, el verano se marcho
      F                    G7
el sol fue nuestro testigo, ahora solo soy tu amigo.

*
    Am                    F
Tu en tu casa yo en la mía, amor de telepatía
      Am                         E
un iluso en la distancia y en mis manos tu fragancia
       C                       E
una parte de tu pelo se ha enredado entre mis labios,
      F                     G7
si te pienso es un consuelo, si te veo es un milagro.


*
CORO:
    C                         Am
E---3-----0-------------0-----3-----0------
B------3-----1----1--3-----1-----3-----1---
G------------------------------------------
D------------------------------------------
A---3--3----------------------0--0---------
E------------------------------------------
Donde estarás te estoy esperando en el mar,


 Fm                      C    G
E--------0------3-----0-------1--0------------------
B---1--3----1------3----1-----------3--1--0---1-----
G------------------------------------------------2--
D---------------------------------------------------
A-----------------------------------------0---0---0-
E---------------0--0--------------------------------
Yo te estoy guardando un lugar y no te veo llegar,

E---3-----0------
B------3-----1---
G----------------
D----------------
A----------------
E----------------

*

    C                         Am
E---3-----0-------------0-----3-----0------
B------3-----1----1--3-----1-----3-----1---
G------------------------------------------
D------------------------------------------
A---3--3----------------------0--0---------
E------------------------------------------
Donde estarás te estoy esperando en el mar,

   Fm                      C    G
E--------0------3-----0-----1--0-------------------
B---1--3----1------3----1---------3--1--0---1------
G----------------------------------------------2---
D--------------------------------------------------
A---------------------------------------0--0---0---
E---------------0--0-------------------------------
Yo te estoy guardando un lugar y no te veo llegar,

*
  Am                             F
Las veredas de mi calle tienen tu nombre grabado,
  Am
y las notas del piano...

E---1---3-0----------
B-------------3---1--        Si se desea de toca?
G--------------------
D--------------------

      E
...en recuerdos se quedaron,
  C                    E
una carta con un beso se quedo en el escritorio
   F                         G7
si te extraño no te pienso, si te veo me escondo

CORO: Se Repite?
Suggest correction
Give kudos to tab author, rate the tab!
1 2 3 4 5
comments
print report bad tab
guest
You may want to rate the tab now too:
select rating
Wanna post a correction for this tab? Suggest correction