Oops, an error
Loading. Please wait.

Se Que Piensas En Mí Tab

52 views 1 this week
no commentswrite comment
1 2 3 4 5
3 more votes to show rating
add to favorites
launch autoscroll
font size
0
reset
how to read this tab
guitar tuner
×
Best way to learn
"Se Que Piensas En Mí"
Autoscroll
slow
fast
+/-
esc
set tempo
stop
Esta cancion se la quiero de dedicar a todos mi amigos y amigas de la
universidad "Alas Peruanas" pero en especial a .... aunque ya no
nos hablemos igual te quiero "tall" jejejejeje


Intro:

1era guitarra (Rasgueo)

D Dsus Dsus/Esus  Dsus (x2)

Bm  Em7  G A7 D


2da Guitarra (Punteo)
E----------10------------------------------------10-------------
B----12-14----14-14-12-12--10-----------------------10/12-10----
G-11--------------------------11-11/12/11-11-9-7----------------
D---------------------------------------------------------------
A---------------------------------------------------------------
E---------------------------------------------------------------

E----------------------------------------
B--3-3-2-2-0-0-2-3/5-3-3-----------------
G----------------------------------------
D----------------------------------------
A----------------------------------------
E----------------------------------------

D         Dsus   Dsus/Esus
Se que te quiero
          Dsus
se cuando tienes miedo
  D         Dsus    Dsus/Esus
se cuando el llanto
         Dsus
inundara el encanto

Bm
Se cuando me hablas
            Em
cuando no quieres decifrar
        G                  Em7
tu pensamiento el que te obliga
A7            D     (saxafon) (riff A)
a no quererme amar.

riff A

E----------------------------------------
B----------------------------------------
G-14-14/16-14----------------------------
D-------------16-14-12-------------------
A----------------------12/14-12----------
E----------------------------------------


D         Dsus         Dsus/Esus
Se cuando estas con el
           Dsus
cuando te tardas en volver
D         Dsus      Dsus/Esus
se que me ves pasar
           Dsus
por tu ventana y recordar
Bm                        Em
que es de tu vida yo aqui sigo
G        A7            Bm
igual tratando de olvidar,
Em7      A         D
tratando de olvidar.


Pre-coro

     G
Conozco todas tus posturas
    F#m7
en ocasiones oportunas y
       G
cuando le haces el amor
      Bm  E7     Em7    A7
volteas, mi foto de tu velador.


Coro
                  D
Se que piensas en mi
          A7                   G
cuando tu pecho se envenena en mi
       A7                      F#7 Bm
te pertenezco hasta la muerte aqui
      E
tengo esta pena que me quema
       Em7             A7          D
y a donde vayas se que pensaras en mi


E----------10------------------------------------10-------------
B----12-14----14-14-12-12--10-----------------------10/12-10----
G-11--------------------------11-11/12/11-11-9-7----------------
D---------------------------------------------------------------
A---------------------------------------------------------------
E---------------------------------------------------------------

E----------------------------------------
B--3-3-2-2-0-0-2-3/5-3-3-----------------
G----------------------------------------
D----------------------------------------
A----------------------------------------
E----------------------------------------

D         Dsus         Dsus/Esus
Se cuando estas con el
           Dsus
cuando te tardas en volver
D         Dsus      Dsus/Esus
se que me ves pasar
           Dsus
por tu ventana y recordar
Bm                        Em
que es de tu vida yo aqui sigo
G        A7            Bm
igual tratando de olvidar,
Em7      A         D
tratando de olvidar.

Pre-coro

Coro


Cuerda -------------654321
Notas --------------EADGBe

D ------------------xx0232
Dsus ---------------xx0233
Esus ---------------xx0455
Bm -----------------224432
Em -----------------022000
F#m7 ---------------x44252
A ------------------002220
A7 -----------------002020

Cualquier duda me lo hacen llegar ami msn tito_acuario_14@
o toti_cakime_14@ seguire mandando canciones
Suggest correction
Give kudos to tab author, rate the tab!
1 2 3 4 5
comments
print report bad tab
guest
You may want to rate the tab now too:
select rating
Wanna post a correction for this tab? Suggest correction