Oops, an error
Loading. Please wait.

Te Mentiría Tab

version 1
version 1

Whole song

61 views 6 this week
no commentswrite comment
1 2 3 4 5
3 more votes to show rating
add to favorites
launch autoscroll
font size
0
reset
how to read this tab
guitar tuner
×
Best way to learn
"Te Mentiría"
Autoscroll
slow
fast
+/-
esc
set tempo
stop
ESTA CANCION ES DEMASIADO CHEVERE PA TOCARLA... TIENES Q AGARRARLE EL FEELING
ESTA ES LA VERDADERA!!! GIANMARCO LA TOCA IGUALITA
VA CON CAPO EN EL SEGUNDO TRASTE POR QUE SINO 
NO LA CANTA NI PAVAROTI :)


EL SOL HAGANLO ASI:
e|------------3-----------------
b|----------3-------------------
g|--------4---------------------
D|------5-----------------------
A|----5-------------------------
E|--3---------------------------

FA-#

e|------------4-----------------
b|----------4-------------------  
g|--------3---------------------
D|------4-----------------------  
A|----4-------------------------
E|--2---------------------------

SI7

e|------------2-----------------
b|----------0-------------------  
g|--------2---------------------
D|------1-----------------------  
A|----2-------------------------
E|--0---------------------------

INTRO

e|------------2---0-2-0---------------------------
b|---------3------------3--------3-3-2------------
g|------2-----------------2-2-0--------2-0 0------
D|--0----------------------------------------4----  
A|------------------------------------------------
E|------------------------------------------------


e|----0-2-0---------------------------- RE RE LAM
b|----------3--------3-3-2-2-3-3-------  
g|------------2-2-0--------------------
D|------------------------------------- 
A|-------------------------------------
E|-------------------------------------


VERSO 1:

e|-------------------------------------------------------------
b|------3-------3---------------------------------------3-2----  
g|----2---2---2---2------4------4---------4----------2---------
D|--0-------4----------4------4-------5-----5---5-------------- 
A|-------------------2------0-------5---5-----5----0-----------
E|--------------------------------3----------------------------

e|---------2-------------------0-------------------------0---
b|-----------0---0-----------0---0------------3--------2----- RE RE LAM 
g|-------------2-----------0-------0--------4--------2-------
D|-----1-----------------2----------------5--------2---------  
A|---2--2--------------2----------------5--------0-----------
E|-0-----------------0----------------3----------------------


VERSO 2:
        SOL                  FA-#        
TE MENTIRIA SI TE DIGO QUE NO PUEDO
          SIm                  MIm
QUE SI ME DEJAS NO VOY A SOBREVIVIR
        SOL                  LA   
TE MENTIRIA SI TE DIGO QUE YO VUELVO
         SOL          LA           RE  
A SER DE NUEVO ALGUNA VEZ PARTE DE TI

CORO:

RE        SOL       LA     RE
AYAYAYAYAY    YAYAYAYAYAYAYAY
RE        SOL       LA     RE
AYAYAYAYAY    YAYAYAYAYAYAYAY
RE        SOL       LA     RE
AYAYAYAYAY    YAYAYAYAYAYAYAY
RE        SOL       LA     RE
AYAYAYAYAY    YAYAYAYAYAYAYAY


        RE        LA               SIm
TE MENTIRIA SI TE DIGO QUE EN LAS NOCHES
           SOL                       LA 
ANDO ESCRIBIENDO TUS MEMORIAS EN CANCION
        SI7                   MIm  
TE MENTIRIA PUES MANDE DE VACACIONES
       SOL          LA              RE
A TU MIRADA, A TUS ABRAZOS Y A TU OLOR


        SOL                    FA-#
TE MENTIRIA SI TE DIGO QUE ME MUERO
             SIm                            MIm
QUE ANDO ESCUCHANDO UNA CANCION DE ESAS DE AYER
          SOL                     LA   
NO TE EQUIVOQUES EL AMOR NO ME DA MIEDO
          SOL                LA      
NO TE PREOCUPES, LO QUE ME HICISTE
             RE 
NO ME VA A DOLER.


CORO:

RE        SOL       LA     RE
AYAYAYAYAY    YAYAYAYAYAYAYAY
RE        SOL       LA     RE
AYAYAYAYAY    YAYAYAYAYAYAYAY
RE        SOL       LA     RE
AYAYAYAYAY    YAYAYAYAYAYAYAY
RE        SOL       LA     RE
AYAYAYAYAY    YAYAYAYAYAYAYAY


        SOL       LA   
TE MENTIRIA SI TE DIGO
          RE           
QUE ME EMOCIONO SI TE VEO
          SOL         LA 
NO TE PREOCUPES TE LO DIJE
        RE RE                     SOL-LA -RE
POR QUE YO NO! NO QUIERO VERTE DE NUEVOOOOOOO

         SOL        LA 
PARA QUE VOY A MENTIRTE
        RE        
SI NI SIQUIERA YA SIENTO
              SOL         LA         RE     RE
LO QUE AL PRINCIPIO ME CAUSABAS SE BORRO, SE FUE
                  SOL-LA -RE
DENTRO DE MI PENSAMIENTOOOOO

OUTRO:

e|----------------3-3-0-2---
b|---------3----3-----------  
g|------2-------------------  3 VECES
D|--0---------0-------------   
A|--------------------------
E|--------------------------


DIFRUTENLA, 

SAID
Suggest correction
Give kudos to tab author, rate the tab!
1 2 3 4 5
comments
print report bad tab
guest
You may want to rate the tab now too:
select rating
Wanna post a correction for this tab? Suggest correction