Oops, an error
Loading. Please wait.

Te Mentiría Tab

version 2
version 2

Whole song

32 views 1 this week
no commentswrite comment
1 2 3 4 5
3 more votes to show rating
add to favorites
×
Save as Personal and add changes to this tab that will be seen only by you. Learn more ›
×
You can save this tab as Personal to edit and correct it or add notes. All changes will be seen only by you. Learn more »
save as personal
new!
launch autoscroll
font size
0
reset
how to read this tab
guitar tuner
Autoscroll
slow
fast
+/-
esc
set tempo
stop
Capo
2nd fret
La canción original está en E, pero para que sea más sencillo tocar
el requinto inicial y acompañarlo con bajos para que se oiga más
completo, pongamos el capo en el segundo traste =D
También agregué el final de la canción...

CAPO: 2

INTRO:

   D   D           G          A       D
e|-2-|-0h2-0-----|--------|---------|-------|
B|-3-|-------3---|-----3~-|-3-2-----|-----3-|
G|-2-|---------2-|-2-0----|-----2-0-|-0-----|
D|-0-|-0---------|--------|---------|---4---|
A|---|-----------|--------|---0-----|-5-----|
E|---|-----------|-3------|---------|-------|


   D           G          A              D D A
e|-0h2-0-----|--------|-------|--------|-------|
B|-------3---|-----3~-|-3-2-2-|-2/3-3~-|-3-3-2-|
G|---------2-|-2-0----|---2---|--------|-2-2-2-|
D|-0---------|--------|-------|--------|-0-0-2-|
A|-----------|--------|---0---|--------|-----0-|
E|-----------|-3------|-------|--------|-------|

Ésta parte va arpegiada... se escucha mejor si omiten la primer cuerda
en el arpegio... ya saben, bajo y arpegio aleatorio jaja

NOTA: Por ahí vienen algunos acordes compuestos (D/C#, Bm/A) y uno
medio raro (F#m7-5)... los diagramas, como ya saben, los encuentran
en la parte superior de la página, en el iconito de la hoja con
la nota musical roja y también los agregué al final...


[1]
         D        D/C#         Bm     Bm/A
Te mentiría si te digo que no puedo,
           Em                   A7
Que si me dejas no voy a sobrevivir,
       F#m7-5            B7*        Em*  <--- B7* y Em* con cejilla
Te mentiría, pues de amor nadie se muere,
              C             G  -  A7  -   D   A7
Que el dolor pasa y se acurruca dentro en mí


[2]
Te extrañaría por las tardes si me acuerdo,
Pues no es muy bueno a la cabeza atormentar,
Es más bonito emocionarme si te veo
        C             G  -  A7  -  D  -  D7
En una foto pues de frente sería fatal


[3]
         G                     F# - F#7
Te mentiría si te digo que no puedo,
           Bm         Bm/A       Em
Que si me dejas no voy a sobrevivir,
         G                     A7
Te mentiría si te digo que yo vuelvo
           G           A7           D  -  D7
A ser de nuevo alguna vez parte de ti


[3a]
G   A7   D
Ay, ay, ay, ay...
G   A7   D   D7
Ay, ay, ay, ay...
G   A7   D
Ay, ay, ay, ay...
G   A7   D  -  A7
Ay, ay, ay, ay...


[2]
Te mentiría si te digo que en las noches
Ando escribiendo tus memorias en canción,
Te mentiría, pues mandé de vacaciones
A tu mirada, a tus abrazos y a tu olor


[3]
Te mentiría si te digo que me muero,
Que ando escuchando una canción de esas de ayer,
No te equivoques, el amor no me da miedo,
No te preocupes, lo que me hiciste no me va a doler


[3a]
G   A7   D
Ay, ay, ay, ay...


[3a]
Te mentiría si te digo
Que me emociono si te veo,
No te preocupes, te lo dije,
Porque yo no quiero verte de nuevo


[3a]
Para que voy a mentirte,
Si ni siquiera ya siento
Lo que al principio me causabas,
Se borró, se fue, dentro de mi pensamiento...


FINAL:

   D             G     A     D             G     A
e|-----0-------|---3-|-----|-----0-------|---3-|-----|
B|-------3---3-|---3-|-2-3-|-------3---3-|---3-|-2-3-|
G|---2-----2---|-----|-----|---2-----2---|-----|-----|
D|-0-----------|-----|-----|-0-----------|-----|-----|
A|-------------|-----|-0---|-------------|-----|-0---|
E|-------------|-3---|-----|-------------|-3---|-----|

   D             G     A   D
e|-----0-------|---3-|---|---|
B|-------3---3-|---3-|-2-|-3-|
G|---2-----2---|-----|---|-2-|
D|-0-----------|-----|---|-0-|
A|-------------|-----|-0-|---|
E|-------------|-3---|---|---|


ACORDES:
D      : XX0232
D/C#   : X40232
Bm     : X24432
Bm/A   : X04432
Em     : 022000
G      : 320033  o  355433 <-- Para el coro.
A      : X02220
A7     : 002020
F#m7-5 : X9A9AX <-- 'A' simboliza el 10° traste.
B7*    : 797877 <-- Cejilla 7°
Em*    : X79987 <-- Cejilla 7°
C      : X32010
D7     : XX0212
F#     : 244322
F#7    : 242322

Cualquier duda o comentario a mi correo plz ;)
Etor...
Suggest correction
Give kudos to tab author, rate the tab!
1 2 3 4 5
comments
print report bad tab
guest
Wanna post a correction for this tab? Suggest correction