Oops, an error
Loading. Please wait.

Una Canción De Amor Tab

55 views 1 this week
no commentswrite comment
1 2 3 4 5
3 more votes to show rating
add to favorites
launch autoscroll
font size
0
reset
how to read this tab
guitar tuner
×
Best way to learn
"Una Canción De Amor"
Autoscroll
slow
fast
+/-
esc
set tempo
stop
weno les envio la tablatura de esta linda
 cancion esta 100% bien hecha

e|:-------3--3-3--4-4-3---------3--3-3-4-6--4-3---6--6-4-4-3------
B|:----------------------------------------------------------4----
G|:---3-3------------------3-3---------------------------------5--
D|:---------------------------------------------------------------
A|:---------------------------------------------------------------
E|:---------------------------------------------------------------


e|-------4--4-4--6-6-4-3----3-6-----------------3-3--------------
B|------------------------6-----6--4-4---------------6-6-4--6-6--
G|---5-5-------------------------------3----3-3------------------
D|---------------------------------------------------------------
A|---------------------------------------------------------------
E|---------------------------------------------------------------

e|------------------------------------------4-3---:|
B|-------6-6--4-4-3--4-4--------6-6--4-4--6-------:|
G|---3-3--------------------3-3-------------------:|  x 2
D|------------------------------------------------:|
A|------------------------------------------------:|
E|------------------------------------------------:|

CORO:

e|:------------3-4-3----3-3-6-6--4-4-3---3-------3-4-3---
B|:---3--4--6--------------------------6----4--6---------
G|:------------------------------------------------------
D|:------------------------------------------------------
A|:------------------------------------------------------
E|:------------------------------------------------------

e|:---3-3-6-6--4-4-3---3-------3-6-----------
B|:------------------6----4--6-----6--4-4----
G|:---------------------------------------3--
D|:------------------------------------------
A|:------------------------------------------
E|:------------------------------------------

e|:-------4-3----|--3-3-3--------------
B|:-----4-----4--|---------6-6-4--6-6--
G|:---3----------|---------------------
D|:--------------|---------------------
A|:--------------|---------------------
E|:--------------|---------------------

Para hacer el final se  toka = todo el coro y solo cambia
 a partir de la division , en lugar de eso se toca esto:

e|:--3-3-3--------------
B|:---------6-4--6-6?4--
G|:---------------------
D|:---------------------
A|:---------------------
E|:---------------------


(NOTA) si qustas repites la ustima parte del coro varias veses
donde se spone q va ?no puedo creer..?

 claro q cn el arreglo final

cualquier duda y/o petición de otra cansion
 escribanme a jorgito_lu@
Suggest correction
Give kudos to tab author, rate the tab!
1 2 3 4 5
comments
print report bad tab
guest
You may want to rate the tab now too:
select rating
Wanna post a correction for this tab? Suggest correction