Oops, an error
Loading. Please wait.

Que Haces Tú? Tab

version 1
version 1

Whole song

59 views 1 this week
no commentswrite comment
1 2 3 4 5
3 more votes to show rating
add to favorites
launch autoscroll
font size
0
reset
how to read this tab
guitar tuner
×
Best way to learn
"Que Haces Tú?"
Autoscroll
slow
fast
+/-
esc
set tempo
stop
INTRO
e----------------------------------1-----1--------------------3---------------
b-------3------3-------3-------3----------------3-----------3--------3--------
g-----0------0-------0-------2---------0------2-----------0--------0----------
D---4------4-------4-------4---------2------0-----0h2h0---------3-----0h2h0---
A----------------2-------2---------3------------------------------------------
E-3------3----------------------------------------------3---------------------


E-|--------3-------------3--------------------3-------------------
B-|------3-------------3-----------------1--------1---------------
G-|----0-------------0-----------------0---0----0---0-------------
D-|---------------------------------------------------------------
A-|---------------------------------0-----------------------------
E-|--3-------------3----------------------------------------------
    Cuantas veces ya yo mismo he dicho

E-|--------2------------2----------------3-----------------------------
B-|------3------------3------------------------------------------------
G-|----2------------2-----------------0--------------------------------
D-|--0------------0------------------0---------------------------------
A-|--------------------------------------------------------------------
E-|--------------------------------3---------3---2---0-----------------
    que lo dejo todo y que me iria

E-|--------3------------3-----------0------------0----------------
B-|------3------------3---------------1--------1------------------
G-|----0------------0-------------0----------0--------------------
D-|---------------2----------------------0h2----------------------
A-|------------------------------3--------------------------------
E-|--0------------------------------------------------------------
    debe haber algún maldito sitio

E-|--------0------------0---------------5----3p2p0-------------------
B-|------1------------1------------3------0--------------------------
G-|----0------------0------------2---2-------------------------------
D-|---------------2------------0-------------------------------------
A-|--0---------------------------------------------------------------
E-|------------------------------------------------------------------
    con un cielo y una casa mia.

E-|--------3---------------3----------------------3----------------
B-|------3---------------3-------------------1------1---------1----
G-|----0---------------0-------------------0---0------------0------
D-|-----------------------------------------------------0h2--------
A-|--------------------------------------0-------------------------
E-|--3---------------3---------------------------------------------
    Grandes héroes gran poder que importa?

E-|-------2---------------3---------------3---------------------------
B-|-----3---------------3---------------3-----------------------------
G-|---2---------------2---------------0-------------------------------
D-|-0---------------0-------------------------------------------------
A-|-------------------------------------------------------------------
E-|---------------------------------3--------3---2--0-----------------
   luego no hay coraje no hay valor o    no se ve

E-|--------3----------------3-----------------0-------------------------------
B-|------3----------------3---------------1--------------1--------------------
G-|----0----------------0---------------0---0---0------0----------------------
D-|-------------------2----------------------------0h2------------------------
A-|-----------------------------------3-------------------------------------
E-|--0----------------------------------------------------------------------
    sabes que el llegar no cuesta tanto
                         *   **
E-|--------2----------0------3----00---33---00------------
B-|------3----------3--------3----33---00---11------------
G-|----2----------2----------0----00---00---00-RASGUEO----
D-|--0----------0------------0----00---00---22------------
A-|--------------------------2----22---22---33------------
E-|--------------------------3----33---33---33------------
    lo dificil es permanecer  Que haces tu? 

                              G   
Para mantenerte en pie sin decaer
*   **    C
que haces tu? 
                            G
Para discutir y no desfallecer?
        Am          Am7           C  
yo que muero en el intento sabes que
           D            Dsus2 
estoy nervioso estoy ansioso 
      G 
pero bien

NUEVAMENTE EL PUNTEO DEL PRINCIPIO 

Y NUEVAMENTE VAMOS CON EL PUNTEO DE LA CANCION SOLO CAMBIAMOS LA LETRA
ESPERO QUE LES AYUDE AUNQUE SEA COMO GUIA Y SI ENCUENTRAN UN HERRROR POR 
FAVOR HAGANMELA SABER A alfa_omega22@

LUEGO NOS VEMOS
Suggest correction
Give kudos to tab author, rate the tab!
1 2 3 4 5
comments
print report bad tab
guest
You may want to rate the tab now too:
select rating
Wanna post a correction for this tab? Suggest correction