Oops, an error
Loading. Please wait.

Espíz Metal Tab

10 views 1 this week
no commentswrite comment
1 2 3 4 5
3 more votes to show rating
add to favorites
launch autoscroll
font size
0
reset
how to read this tab
guitar tuner
Autoscroll
slow
fast
+/-
esc
set tempo
stop
Help us to improve Ultimate-Guitar.com Take our survey!
×
(No hagas caso de la duración de las notas; trata de sacarlas
escuchando la canción)

Intro

A G# G F# E

Riff 1

     Q    Q    H           Q    Q    Q    Q       Q    Q    H
E||---------------------|----------------------|---------------------|
B||---------------------|----------------------|---------------------|
G||---------------------|----------------------|---------------------|
D||--2----5----7--------|--2----5----7---------|--2----5----7--------|
A||--0----3----5--------|--0----3----5---------|--0----3----5--------|
E||---------------------|----------------------|---------------------|


  Q    Q    Q    Q
----------------------||
----------------------||
----------------------||
--2----8----7---------||
--0----6----5---------||
----------------------||

Riff 2
"No pongas cara de bobo..."

   Q    Q    Q    Q       Q    Q    Q    Q       Q    Q    Q    Q
E||----------------------|----------------------|----------------------|
B||----------------------|----------------------|----------------------|
G||----------------------|----------------------|----------------------|
D||--2----2----2----2----|------------0----2----|--0-------------------|
A||--0----0----0----0----|--0----3--------------|-------3--------------|
E||----------------------|----------------------|----------------------|


  Q    Q    Q    Q       Q    Q    Q    Q       Q    Q    Q    Q
----------------------|----------------------|----------------------||
----------------------|----------------------|----------------------||
----------------------|----------------------|----------------------||
--2----2----2----2----|------------0----2----|--0----5--------------||
--0----0----0----0----|--0----3--------------|----------------------||
----------------------|----------------------|----------------------||

Riff 3
"Tralla, caña..."

   Q    Q    Q    Q       Q    Q    Q    Q       Q    Q    Q    Q
E||----------------------|----------------------|----------------------|
B||----------------------|----------------------|----------------------|
G||----------------------|----------------------|----------------------|
D||--2----2----2----2----|------------0----2----|--0-------------------|
A||--0----0----0----0----|--0----3--------------|-------3--------------|
E||----------------------|----------------------|----------------------|


  Q    Q    Q    Q       Q    Q    Q    Q       Q    Q    Q    Q
----------------------|----------------------|----------------------||
----------------------|----------------------|----------------------||
----------------------|----------------------|----------------------||
--2----2----2----2----|------------0----2----|--0----5--------------||
--0----0----0----0----|--0----3--------------|----------------------||
----------------------|----------------------|----------------------||

Riff 4
"Espíz metal..."

     Q    Q    Q    Q       Q    Q    Q    Q       Q    Q    Q    Q
E||----------------------|----------------------|----------------------|
B||----------------------|----------------------|----------------------|
G||----------------------|----------------------|----------------------|
D||--9----9----9----9----|--9----7----5----4----|--9----9----9----9----|
A||--7----7----7----7----|--7----5----3----2----|--7----7----7----7----|
E||----------------------|----------------------|----------------------|


  Q    Q     Q    Q
-----------------------||
-----------------------||
-----------------------||
--9----7----10----9----||
--7----5-----8----7----||
-----------------------||


Tablatura de Numbertus1
Suggest correction
Give kudos to tab author, rate the tab!
1 2 3 4 5
comments
print report bad tab
guest
You may want to rate the tab now too:
select rating
Wanna post a correction for this tab? Suggest correction