Oops, an error
Loading. Please wait.

Makina Machin Chords

23 views 3 this week
no commentswrite comment
1 2 3 4 5
3 more votes to show rating
add to favorites
launch autoscroll
font size
0
reset
transpose
0
reset
display chords
guitar tuner
×
Best way to learn
"Makina Machin"
Autoscroll
slow
fast
+/-
esc
set tempo
stop
INTRO
Bueno tronkos, para la intro pillamos una Harley FXDC último modelo
la hacemos rugir y después pillamos la guitarra...

e-----------------------------------------------
B-----------------------------------------------
G----8-7-----8-7-------------8-7-----8-7---------
D--7-8-7-7-7-8-7-7-77-7----7-8-7-7-7-8-7-7-888-7-
A--7-6-5-7-7-6-5-7-77-7----7-6-5-7-7-6-5-7-888-7-
E--5-----5-5-----5-55-5----5-----5-5-----5-666-5-
                   PM                      PM

A                C
Hoy me he levantado
B                            A#
con el caballete puesto pensando en ti (uh)
A                 C
He llenado el depósito
D                         A#
He soldado mi bota al acelerador


**Ritmo 2**
Mis juntas chirrían obscenas
Cuando me acerco a ti nena
Como se quema el asfalto,
bajo mi tanga de amianto


(Durante el estribillo la 2ª guitarra hace algo parecido
 a la intro pero con los acordes D-C-A)
A
Máquina, máquina. Yo soy la máquina
F        G
Máquina, Maquina. Aim de machín


A                  C
Soy mitad macho, mitad cacharro
B                           A#
Cromado y con sistema hidráulico de erección
A                 C
Grasa y acero mis únicos compañeros
D                A#
Mis colegas! Solo con ellos duermo en mi taller

**Ritmo 2**
Sudo grasa y óxido nitroso
Me alimento de humo y fuel-oil
Chillan mis ruedas, chillas tú, nena
Solo tú empañas las lunas de mis gafas de sol


Máquina, máquina...

(Ahora Charly hace uno de sus sólos sobre los
 mismos acordes del estribillo A-F-G

**Ritmo 2**
Si algún día me averío, cariño mío
No derrames gasolina por mí
Estaré en algún hangar de la Nasa
Adaptando mi potencia a tu chasis de colibrí


Máquina, máquina...

__________________________________________________
Ritmo 2 (En cada estrofa x2 veces)

e-----------------------------------------------
B-----------------------------------------------
G----7-7/8--7-7/8----------7-7/8--7-7/8---------
D--7-7-7/8--7-7/8-8-7----7-7-7/8--7-7/8-------7-
A--7-5-5/6--5-5/6-8-7----7-5-5/6--5-5/6-------7-
E--5--------------6-5----5--------------6-8-6-5-
__________________________________________________
Suggest correction
Give kudos to tab author, rate the tab!
1 2 3 4 5
comments
print report bad tab
guest
You may want to rate the tab now too:
select rating
Wanna post a correction for this tab? Suggest correction