Oops, an error
Loading. Please wait.

Rebeldes De Cuero Bass

16 views 1 this week
no commentswrite comment
1 2 3 4 5
3 more votes to show rating
add to favorites
×
Save as Personal and add changes to this tab that will be seen only by you. Learn more ›
×
You can save this tab as Personal to edit and correct it or add notes. All changes will be seen only by you. Learn more »
save as personal
new!
launch autoscroll
font size
0
reset
guitar tuner
Autoscroll
slow
fast
+/-
esc
set tempo
stop
1|----------------------
2|----------------------
3|----------------------
4|-5----5----1----3-----
   ¡Rebeldes de cuero!

1|----------------------------------------------------
2|----------------------------------------------------
3|----------------------------------------------------
4|-5--5--5--5--5--5--5--5--1--1--1--1--3--3--3--3-----


1|---------------------------------------------------------------------
2|---------------------------------------------------------------------
3|-------------4-5-------------4-5-------------0-1-------------2-3---X2
4|-5-5-5-5-5-5-----5-5-5-5-5-5-----1-1-1-1-1-1-----3-3-3-3-3-3---------


1|-------------------------------------------------------------------
2|-------------------------------------------------------------------
3|-----------------3-3-3-3-3-3-3-3-----------------------------------
4|-5-5-5-5-5-5-5-5-----------------3-3-3-3-3-3-3-3-5--3-5--3-5-3-----
      Como almas en pena, deambulan por la gran ciudad,

1|-------------------------------------------------------------------
2|-------------------------------------------------------------------
3|-----------------3-3-3-3-3-3-3-3-----------------------------------
4|-5-5-5-5-5-5-5-5-----------------3-3-3-3-3-3-3-3-5--3-5--3-5-3-----
    son los hijos del asfalto, heavy metal es su única verdad.

1|-------------------------------------------
2|-------------------------------------------
3|-------------------------------------------
4|-1----3----5--3-5--3-5-3-5--3-5--3-5-3-----
Iron Maiden, Escorpiones, Bella bestia, Dio, Guasp,

1|----------------------------------------------------
2|----------------------------------------------------
3|----------------------------------------------------
4|-1----3----5--3-5--3-5-3----------------------------
   los Obus y los Metallica sus ídolos serán.

1|-----------------------------
2|-----------------------------
3|-------------3-------3-----X2
4|-5-5---3-3------3-5----3-----


1|-----------------------------
2|-----------------------------
3|-------------3-------3-------
4|-5-5---3-3------3-5----3-----
Rebeldes de cuero vibran sin cesar,

1|-----------------------------
2|-----------------------------
3|-------------3-------3-------
4|-5-5---3-3------3-5----3-----
melenas al viento, tachas y metal.

1|---------------------------------------------------------------------
2|---------------------------------------------------------------------
3|-------------4-5-------------4-5-------------0-1-------------2-3-----
4|-5-5-5-5-5-5-----5-5-5-5-5-5-----1-1-1-1-1-1-----3-3-3-3-3-3---------


1|-------------------------------------------------------------------
2|-------------------------------------------------------------------
3|-----------------3-3-3-3-3-3-3-3-----------------------------------
4|-5-5-5-5-5-5-5-5-----------------3-3-3-3-3-3-3-3-5--3-5--3-5-3-----
   Marginados por la sociedad, el heavy metal: su hermandad,

1|-------------------------------------------------------------------
2|-------------------------------------------------------------------
3|-----------------3-3-3-3-3-3-3-3-----------------------------------
4|-5-5-5-5-5-5-5-5-----------------3-3-3-3-3-3-3-3-5--3-5--3-5-3-----
        como les toque los huevos como fieras morderán.

1|-------------------------------------------
2|-------------------------------------------
3|-------------------------------------------
4|-1----3----5--3-5--3-5-3-5--3-5--3-5-3-----
Bloque, Bruque, Asfalto, Leño, molan mogollón,

1|----------------------------------------------------
2|----------------------------------------------------
3|----------------------------------------------------
4|-1----3----5--3-5--3-5-3----------------------------
  he flipado con lo último de los tigres de metal.

1|-----------------------------
2|-----------------------------
3|-------------3-------3-----X2
4|-5-5---3-3------3-5----3-----


1|-----------------------------
2|-----------------------------
3|-------------3-------3-------
4|-5-5---3-3------3-5----3-----
Rebeldes de cuero vibran sin cesar,

1|-----------------------------
2|-----------------------------
3|-------------3-------3-------
4|-5-5---3-3------3-5----3-----
melenas al viento, tachas y metal.

1|-----------------------------
2|-----------------------------
3|-------------3-------3-------
4|-5-5---3-3------3-5----3-----
Rebeldes de cuero molan mogollón,

1|-----------------------------
2|-----------------------------
3|-------------3-------3-------
4|-5-5---3-3------3-5----3-----
rebeldes de cuero, como tú y yo.


Para las dudas me mandais un e-mail.
Un saludo.
Agur!
Suggest correction
Give kudos to tab author, rate the tab!
1 2 3 4 5
comments
print report bad tab
guest
Wanna post a correction for this tab? Suggest correction