Oops, an error
Loading. Please wait.

Te Peto El Kakas Chords

29 views 1 this week
no commentswrite comment
1 2 3 4 5
3 more votes to show rating
add to favorites
launch autoscroll
font size
0
reset
transpose
0
reset
display chords
guitar tuner
×
Best way to learn
"Te Peto El Kakas"
Autoscroll
slow
fast
+/-
esc
set tempo
stop
Tab by Page Piru
14-2-2001


Hola gente aun no hemos visto por ninguna web ningun tabulado 
de estos idolos de rock nacional,asi ke me he animado y con 
algunas ideas ke ya tenia ,he sacado el tab.

Intro:

        F#            D               B                      E

E-9p7-9----10/9--10-9-7----10/9-10-------7------7--------7--------------
B-------7---------------------------7/9-----10-----10-9-----10----------
G-----------------------------------------------------------------------      x2
D-----------------------------------------------------------------------
A-----------------------------------------------------------------------
E-----------------------------------------------------------------------

        F#m        G#           A    D   C#
E-------7-------7--9--7-------------10--9----9/10/9--7--9---------------
B-9-10------10-----------10-9--7----------------------------------------
G-----------------------------------------------------------------------
D-----------------------------------------------------------------------
A-----------------------------------------------------------------------
E-----------------------------------------------------------------------


F#
      Ven conmigo nena
              B      
      vamos a bailar
F#
      te invito a una noche
F#         G#           A
      de sexo y de hach
D                        E
      Tu amiga se puede ir largando
A             G#       F#      E        D
      te he elegido a ti,te he elegido a ti
                         C#                 EE EE  E
      me molas mas chati ke los helloween


Estribillo:

      ¡Te voy a petar el cacas¡
        F#m        D      
      te lo peto pero de verdad
        B             E   
      por ke charly peta cacas sin cesar
        F#m        D      
      con ternura pero sin piedad
        B              E
      con su miembro te reventara el ojal


Bueno de masiado facil,si creeis que esta mal o simplemente quereis dar por el culete
mi mail es este,Si teneis mas tabs de este o de otros grupos tales como;gigatron,
el ultimo ke zierre,mcd,extremoduro,reincidentes,la polla,etc...
Suggest correction
Give kudos to tab author, rate the tab!
1 2 3 4 5
comments
print report bad tab
guest
You may want to rate the tab now too:
select rating
Wanna post a correction for this tab? Suggest correction