Oops, an error
Loading. Please wait.

Se Me Ha Perdido Un Corazón Bass

by Gilda
89 views 1 this week
no commentswrite comment
1 2 3 4 5
3 more votes to show rating
add to favorites
launch autoscroll
font size
0
reset
guitar tuner
×
Best way to learn
"Se Me Ha Perdido Un Corazón"
Autoscroll
slow
fast
+/-
esc
set tempo
stop
-------------------------------------------------------------6------
------------------------------------------------9-11-9---------9-6--
7-7-6---11/16-16-14----14/16/14---7-7-6------------------7/9-------9
------9-------------17----------7-------9-9-7-5--------7------------

---------------------------------------------------------------------
-----------------------------------------------------6-9-------------
--------------7-11-------4-7---4-7---4-7---------6-7-----7-7-6---7-11
0-4-7-0-4-7-9------9-7-5-----5-----5-----7-7-7-9----------------9----

-----------------------------------
-----------------------------------
-------4-7---4-7---4-7----------6-7
-9-7-5-----5-----5-----7-7-7-9----

---------------------------------------------------------------------
------------9---------------9----------------------------------------
9---9-----9---7-9---------9---------6---------------7-11---7-11---4-7
--9---9-7---------9-2-9-7-----7-7-9---0-4-7-0-4-7-9------9------5----

--------------------
--------------------
---6-9-----7-11------
-7-----9-9-----9-9-7

--------------------------------------------
-------------------------------------7-9---9
--4-7--6-9---7-11---2/---4-7---6-9-7-----7--
5-----7----9------9----5-----7--------------

---------------------------------------------
------------------------------------9-9-7-6--
4-4---------7-7-4-4-------------6-9---------9
----7-7-5-7---------7-7-5-5-7-9--------------

---------------------------------------------------------------------
--6-9---6-9---------------------------------------------6-9---6-9----
7-----7-------7-11---7-11---4-7---4-7---4-7---------6-7-----7-------7
------------9------9------5-----5-----5-----7-7-7-9---------------9--

-----------------------------------
--------------------------------6-9
-11---4-7---4-7---4-7-----6-7-7----
----5-----5-----5-----7-9----------

-----------------------------------------------------------------
-------------------------------------------------------9-9-7-6---
7-6--------------6---------------7-6---7---7-------6-9---------9-
----9-9-9-4--9-9---9-7-7-7-2-7-7-----9---9---9-9-7---------------


--------------------------------------------------------------------
--6-9-------------------------------------------------6-9---6-9-----
7-----7-6---7-11---7-11---4-7---4-7---4-7---------6-7-----7-------7-
----------9------9------5-----5-----5-----7-7-7-9---------------9---

----------------------------------------------------
-------------------------------------9-9---9---9----
11-------4-7---4-7---4-7---------6-7-----7---7---7--
---9-7-5-----5-----5-----7-7-7-9--------------------

---------------------------------------------
------------------------------------9-9-7-6--
4-4---------7-7-4-4-------------6-9---------9
----7-7-5-7---------7-7-5-5-7-9--------------


-------------------------------------------------------------------
--4-9-------------------------------------------------6-9---6-9----
7-----7-7-6---7-11---7-11---4-7---4-7---4/7-------6-7-----7-------7
------------9------9------5-----5-----5-----7-7-9---------------9--

-----------------------------------------
--------------------------------------6-9
-11---------4-7---4-7---4-7-------6-7----
----9-9-7-5-----5-----5-----7-7-9--------
Suggest correction
Give kudos to tab author, rate the tab!
1 2 3 4 5
comments
print report bad tab
guest
You may want to rate the tab now too:
select rating
Wanna post a correction for this tab? Suggest correction