Oops, an error
Loading. Please wait.

Dele Por Ahí Chords

31 views 1 this week
no commentswrite comment
1 2 3 4 5
3 more votes to show rating
add to favorites
launch autoscroll
font size
0
reset
transpose
0
reset
simplify chords
display chords
guitar tuner
×
Best way to learn
"Dele Por Ahí"
Autoscroll
slow
fast
+/-
esc
set tempo
stop
e|-6-(X8)-10-(X8)-10-(X8)-10-(X3)--8--6-8--6-(X2)-|
B|-8-(X8)-11-(X8)-11-(X8)-11-(X3)--10-8-10-8-(X2)-|
G|------------------------------------------------|
D|------------------------------------------------|
A|------------------------------------------------|
E|------------------------------------------------|

e|-11-(X4)--10-(X4)-8-(X4)-10(X2)-|
B|-13-(X4)--11-(X4)-10(X4)-11(X2)-|
G|--------------------------------|
D|--------------------------------|
A|--------------------------------|
E|--------------------------------|

e|-11(X4)-10(X4)-°-----------------------|
B|-13(X4)-11(X4)-°--------10-13-11-10----|
G|---------------°-----12-------------12~|
D|---------------°--12-------------------|
A|---------------°-----------------------|
E|---------------°-----------------------|

en ritmo de trova se tocan los siguientes acordes:

Am - E - (Dm-Am-Em-Am)

ej:

Am
ayer vi a martha cecilia,
                   E7
me le fui con discimulo,
                 E7
y como estaba agachada,
                        Dm            Am            E             Am
yo le di fue por el:    dele por ahi, dele por ahi, dele por ahi, dele.

asi es toda la canción,
espero la disfruten y se parrandeen el fin de año 2006
y un feliz año 2007 para todos los ke buscan tabs acá,
si algo ahista el mail
suerte
Suggest correction
Give kudos to tab author, rate the tab!
1 2 3 4 5
comments
print report bad tab
guest
You may want to rate the tab now too:
select rating
Wanna post a correction for this tab? Suggest correction