Oops, an error
Loading. Please wait.

Te Casaste Toño Tab

179 views 1 this week
no commentswrite comment
1 2 3 4 5
3 more votes to show rating
add to favorites
launch autoscroll
font size
0
reset
how to read this tab
guitar tuner
×
Best way to learn
"Te Casaste Toño"
Autoscroll
slow
fast
+/-
esc
set tempo
stop
 Am, E, Dm

INTRO
  Am                       E                             Am
e--------0------0------1-0--|------------------------0----|
B-----1-1-3--1-1-3--1-1---3-|-----0-0-3-1-0-0-3-1-0-0-3-1-|
G----2-2----2-2----2-2------|----1-1-----1-1-----1-1------|
D--2------------------------|--2--------------------------|
A---------------------------|-----------------------------|
E---------------------------|-----------------------------|

  Dm        Am       E              Am
e----1-1-3-1--0-0-1-0-----0------------|
B---3-3------1-1-------3-3-3-1--0-1-0--|
G--2------------------4-4------------2-|  Se Repite.
D--------------------------------------|
A--------------------------------------|
E--------------------------------------|

Am                                               E
Tanto que decia toño que no se casaba pero se casó(por bobo)
                                                     Am
Hombre y con el matrimonio hasta el madroño se le acabo(como?)
                                                 E
Ayer estuvo conmigo y muy triste toño así me contaba
                                                      Am
Ya se me chupo el ombligo y se me cayeron las dos guayabas(barbaro)
                                               E
Muy triste me dijo toño, compadre que cruz tan dura(pesa mucho)
                                             Am
el bendito matrimonio al que no mata lo desfigura(quieto)

Coro.
Am
Toño, te casate toño?
Am
Toñito, se te acabo el madroño
Am
Toñilas, y del ombligo nada
Am
eeeeeh, haber las dos guayabas?

  Am                       E                             Am
e--------0------0------1-0--|------------------------0----|
B-----1-1-3--1-1-3--1-1---3-|-----0-0-3-1-0-0-3-1-0-0-3-1-|
G----2-2----2-2----2-2------|----1-1-----1-1-----1-1------|
D--2------------------------|--2--------------------------|
A---------------------------|-----------------------------|
E---------------------------|-----------------------------|

  Dm        Am       E              Am
e----1-1-3-1--0-0-1-0-----0------------|
B---3-3------1-1-------3-3-3-1--0-1-0--|
G--2------------------4-4------------2-|  Se Repite.
D--------------------------------------|
A--------------------------------------|
E--------------------------------------|

Am                                              E
Por eso nos dice toño que los solteros no nos casemos
                                                        Am
Porque el santo matrimonio es un Cristo más y una virgen menos
                                             E
Hombre pobresito toño y del ombligo no tiene nada
                                                   Am
ya se le acabo el madroño y ya no tiene las dos guayabas
                                               E
muy triste me dijo toño, compadre que cruz tan dura
                                             Am
el bendito matrimonio al que no mata lo desfigura


Coro

 Am                       E                             Am
e--------0------0------1-0--|------------------------0----|
B-----1-1-3--1-1-3--1-1---3-|-----0-0-3-1-0-0-3-1-0-0-3-1-|
G----2-2----2-2----2-2------|----1-1-----1-1-----1-1------|
D--2------------------------|--2--------------------------|
A---------------------------|-----------------------------|
E---------------------------|-----------------------------|

  Dm        Am       E              Am
e----1-1-3-1--0-0-1-0-----0------------|
B---3-3------1-1-------3-3-3-1--0-1-0--|
G--2------------------4-4------------2-|  Se Repite.
D--------------------------------------|
A--------------------------------------|
E--------------------------------------|


Am
Toño, te casate toño?
Am
Toñito, se te acabo el madroño
Am
Toñilas, y del ombligo nada
Am
eeeeeh, haber las dos guayabas?


hace un tiempo q envie una cancioncita parrandera
espero esta tambien sea de su agrado.

Jhulian.
Suggest correction
Give kudos to tab author, rate the tab!
1 2 3 4 5
comments
print report bad tab
guest
You may want to rate the tab now too:
select rating
Wanna post a correction for this tab? Suggest correction