Oops, an error
Loading. Please wait.

Más Bien Menos Mal Tab

by Git
32 views 3 this week
no commentswrite comment
1 2 3 4 5
3 more votes to show rating
add to favorites
×
Save as Personal and add changes to this tab that will be seen only by you. Learn more ›
×
You can save this tab as Personal to edit and correct it or add notes. All changes will be seen only by you. Learn more »
save as personal
new!
launch autoscroll
font size
0
reset
how to read this tab
guitar tuner
Autoscroll
slow
fast
+/-
esc
set tempo
stop
Ya hay una versión, sus acordes estan bien
De todas formas les mando la mia.
Además les mando los solos...
* Las notas entre paréntesis no se escuchan bien
  , se pueden obviar *

INTRO:

  D             Am        C         G
e|-------------|---------|---------|--------7-8-7|
B|----7-8-7h8p7|---------|---------|-------------|
G|---7---------|9.---7-5/|9---5-7/9|(7)(5)-------|


  D             Am        C      G
e|-------------|-------8-|------|-----------(8)(7)|
B|10--8--1010.-|---8-10--|10.---|-----------------|
G|-------------|---------|------|-8p7-5--7--------|
D|-------------|---------|------|-------7---------|


  D
e|--- -              Am               C         G
B|(10)-  Diablos!, quedense aqui, no paren de reir

     D         Am          C             G
       así ya no serán mis ángeles de aquí

     D                   Am              C             G
       verlos bailar, dejando estar el fuego junto al mar

     D            Am             C                  G
       donde pondras tu amor teniendo en la cabeza mil?


B:((
     A#         Am          G
       Uh uh uh uh, no se pierde, no se deja encontrar

     A#         Am          G
       Uh uh uh uh, lo que buscas siempre estuvo acá   )).


     D              Am             C           G
       Detrás de algún cristal no calmarás tu sed

     D                   Am               C           G
       Vas a crecer, vas a estar mal, no te traicionaras

            D                  Am         C               G
       Hoy te rescatará lo mismo que ayer   tu alma condenó

     D          Am               C         G
       Solo podrás perder frente a tu corazón


Repetir: B:

CORO:
                 C-Am      F     G    C  C-Am F G
     ((Donde vas?     más lejos cada ves

              C   C-Am     F         G    C C-Am F G
       Donde vas?      si todo debe suceder          ))(x2)

SOLO:

  D      Am         C                G
e|------|----------|----------------|---------|
B|------|----------|----------10.-10|8--------|
G|7-7..-|5p4-------|--5-7-7/9-------|--8p7..--|
D|------|----7-7..-|----------------|---------|


  D                 Am            C          G
e|-----------8-----|---8---------|----------|------------|
B|8.-8-10-10---10-8|10---10-10..-|8---------|----5/8-8..-|
G|-----------------|-------------|--7/5-5..-|5/7---------|


Repetir:  B:

Repetir: Coro - Coro

* Eso es todo.
  Saludos

Enzo Felipe, Lima-Perú
(Decibel)
Suggest correction
Give kudos to tab author, rate the tab!
1 2 3 4 5
comments
print report bad tab
guest
Wanna post a correction for this tab? Suggest correction