Oops, an error
Loading. Please wait.

Tarado De Cumpleaños Tab

by Git
272 views 6 this week
no commentswrite comment
1 2 3 4 5
3 more votes to show rating
add to favorites
launch autoscroll
font size
0
reset
how to read this tab
guitar tuner
×
Best way to learn
"Tarado De Cumpleaños"
Autoscroll
slow
fast
+/-
esc
set tempo
stop
Hola amigos, otro buen tema de GIT.


INTRO: en la

1/--------12-------12-------/--
2/-----10-------10----------/--
3/---9-------11-------------/--
4/--------------------------/--
5/--------------------------/--
6/--------------------------/--

o puede ser con el armónico

1/-----------armónico en 12--------12--------/--
2/-------------------------------10----------/--
3/----------------------------11-------------/--
4/---armónico en 7---------------------------/--
5/---armónico en 7---------------------------/--
6/-------------------------------------------/--

         LA                            FA#n
A) ya no me lastimas solo te asesinas con tu vanidad..

1/------0-------------------------------0---/--
2/------5-------------------------------7---/--
3/------6-------------------------------6---/--   X: no se toca 
4/------7-------------------------------7---/--      esta cuerda
5/------0-------------------------------X---/--
6/--------------------------------------X---/--

sexo en la cocina........
      
        RE           MIsus
B) Y hoy me ganas otra vez

1/----2------------5----------/--
2/----3------------5----------/--
3/----2------------4----------/--    
4/----0------------0----------/--     
5/----------------------------/--
6/----------------------------/--

     MIsus          MI sus
y ya no hay nada que perder

1/----5------------5----------/--
2/----5------------5----------/--
3/----4------------4----------/--    
4/----4------------2----------/--     
5/----------------------------/--
6/----------------------------/--

INTRO

1/--------12-------12-------/--
2/-----10-------10----------/--
3/---9-------11-------------/--
4/--------------------------/--
5/--------------------------/--
6/--------------------------/--

o puede ser con el armónico

1/-----------armónico en 12--------12--------/--
2/-------------------------------10----------/--
3/----------------------------11-------------/--
4/---armónico en 7---------------------------/--
5/---armónico en 7---------------------------/--
6/-------------------------------------------/--

Parte A)

Parte B)

CORO:
                 Un año otra vez....
1/---5-5--4-4--0-0-----/--
2/---5-5--5-5--7-7-----/--
3/---6-6--6-6--6-6-----/--  3 veces y termina en MIm
4/---7-7--X-X--7-7-----/--
5/---------------------/--
6/---------------------/--

Intro

Parte A)
Parte B)

CORO:

1/---5-5--4-4--0-0-----/--
2/---5-5--5-5--7-7-----/--
3/---6-6--6-6--6-6-----/--  3 veces y termina en Sol 
4/---7-7--X-X--7-7-----/--
5/---------------------/--
6/---------------------/--

Final: en Do y Lam

1/---------15-------15-------/--
2/------13-------13----------/--
3/---12-------14-------------/--
4/---------------------------/--
5/---------------------------/--
6/---------------------------/--
Suggest correction
Give kudos to tab author, rate the tab!
1 2 3 4 5
comments
print report bad tab
guest
You may want to rate the tab now too:
select rating
Wanna post a correction for this tab? Suggest correction