Oops, an error
Loading. Please wait.

Tarado De Cumpleaños Bass Tab

by Git
89 views 1 this week
no commentswrite comment
1 2 3 4 5
3 more votes to show rating
add to favorites
launch autoscroll
font size
0
reset
guitar tuner
Autoscroll
slow
fast
+/-
esc
set tempo
stop
Help us to improve Ultimate-Guitar.com Take our survey!
×
Bueno, ahora el bajo de este tema.


Intro: en la , bajo afinado en MI

1/--------------------------/--
2/--------------------------/--
3/--------------------------/--
4/--------------------------/--
5/--------------------------/--
6/---5-5-5-5--2-2-2-2-2-----/--
        La       Fa#

A) a no me lastimas solo te asesinas con tu vanidad..

1/------------------------------------------------------/--
2/------------------------------------------------------/--
3/------------------------------------------------------/--
4/------------------------------------------------------/--
5/------------------------------------------------------/--
6/---5-5-5-5------------------------------2-2-2-2-2-----/--
        La                                   Fa#

B)Y hoy me ganas otra vez
1/------------------------/--
2/------------------------/--
3/------------------------/--
4/------------------------/--
5/---5-5-5-5---5-5-5-5----/--
6/------------------------/--
       
y ya no hay nada que perder

1/------------------------/--
2/------------------------/--
3/------------------------/--
4/------------------------/--
5/---2-2-2----7-7-7-------/--
6/------------------------/--

Intro:

1/--------------------------/--
2/--------------------------/--
3/--------------------------/--
4/--------------------------/--
5/--------------------------/--
6/---5-5-5-5--2-2-2-2-2-----/--
        La       Fa#

Parte A

Parte B

CORO:
  Un año otra vez.......
1/--------------------------/--
2/--------------------------/--
3/--------------------------/--3 veces
4/--------------------------/--
5/--------------------------/--
6/---5-5-5-5--5-5-5-5-5-----/--
  
            si lo queres
1/--------------------------/--
2/--------------------------/--
3/--------------------------/--
4/--------------------------/--
5/--------------------------/--
6/---5-5-5-5--2-2-2-0-0-0---/--

Intro:

Parte A)
Parte B)

CORO:
Un año otra vez.......
1/--------------------------/--
2/--------------------------/--
3/--------------------------/--varias veces
4/--------------------------/--
5/--------------------------/--
6/---5-5-5-5--5-5-5-5-5-----/--
  
           ...............no no no 
1/--------------------------/--
2/--------------------------/--
3/--------------------------/--
4/--------------------------/--
5/--------------------------/--
6/---5-5-5-5--2-2-2-3-3-3---/-- fin en sol

FIN:
1/--------------------------/--
2/--------------------------/--
3/--------------------------/--
4/--------------------------/--
5/---3-3-3-3----------------/--
6/------------5-5-5-5-------/--
        Do       La
Suggest correction
Give kudos to tab author, rate the tab!
1 2 3 4 5
comments
print report bad tab
guest
You may want to rate the tab now too:
select rating
Wanna post a correction for this tab? Suggest correction