Oops, an error
Loading. Please wait.

Corazón Tab

14 views 1 this week
no commentswrite comment
1 2 3 4 5
3 more votes to show rating
add to favorites
launch autoscroll
font size
0
reset
how to read this tab
guitar tuner
×
Best way to learn
"Corazón"
Autoscroll
slow
fast
+/-
esc
set tempo
stop
A mi parecer esta igualito a la cancion cual consulta hay esta
mi msn .. ^^


E----2-3-5-7--5-7-5----------------------------------------7-5-
B-3-5--------------7-5-5-7-8------5-7-----5-7-8-5-7-8-5-8-5----
G-----------5---------7------4-5-7---7-5-4---------------------
R--------------------------------------------------------------
A--------------------------------------------------------------
E--------------------------------------------------------------

esto sigue de corrido con el de arriba..
E------------------------7-5---
B-7-5-5-7-8--5-7-8-5-8-5-------
G----7-------------------------
R------------------------------
A------------------------------
E------------------------------


E-3--------------------3-------------7-5-
B--3-5-5-88888-7-5-3----3-5-555 -7-8-----
G---4--------------------4---------------
R----------------------------------------
A----------------------------------------
E----------------------------------------


E-3--------------------3-------------7-5-
B--3-5-5-88888-7-5-3----3-5-555 -7-8-----
G---4--------------------4---------------
R----------------------------------------
A----------------------------------------
E----------------------------------------

E------------------------7-5------------------------
B-7-5-3-5-8--5-7-8-5-8-5-----7-5-3---repite lo mismo
G---------------------------------------------------
R---------------------------------------------------
A---------------------------------------------------
E---------------------------------------------------
Suggest correction
Give kudos to tab author, rate the tab!
1 2 3 4 5
comments
print report bad tab
guest
You may want to rate the tab now too:
select rating
Wanna post a correction for this tab? Suggest correction