Oops, an error
Loading. Please wait.

Música De Mi Corazón Bass

37 views 1 this week
no commentswrite comment
1 2 3 4 5
3 more votes to show rating
add to favorites
launch autoscroll
font size
0
reset
guitar tuner
×
Best way to learn
"Música De Mi Corazón"
Autoscroll
slow
fast
+/-
esc
set tempo
stop
INTRO

 G |0-0--r0|2.-22--|-----0|----|----|-------|----0---|-------|
 D |-------|-------|1.--1-|3~--|----|-r-3---|---0----|-------|
 A |-------|-------|------|----|-r5-|-----0-|--------|0.---0-|
 E |-------|-------|------|----|----|-------|3.----3-|-------|


 G |---------|--------|S|--------|0.--0---|-------|
 D |1.--2.-20|--------|-|3-3-2-2-|---0----|-------|
 A |---1-----|3-3-3-3-|-|--------|--------|1--0.-0|
 E |---------|--------|-|--------|------3-|-------|


 G |----------|--------|--------|---------|---4----|+|
 D |----------|3-3-2-2-|1.--1.--|---0-----|1.--1.-1|O|
 A |-----3-3.3|--------|---1---2|----3-33.|--------|+|
 E |3-3.3-----|--------|--------|3.-------|--------|-|


 G |-------|-------|-------|--------|-------|-------|
 D |3--3.-3|-------|-------|--------|-----0-|-------|
 A |-------|1.--1.1|0.--0.0|3--3-30-|---0---|1.--1.1|
 E |-------|-------|-------|-------3|2------|-------|

 G |-------|----0---|-------|---------|--------|S|
 D |-------|---0----|-------|1.--2.-20|--------|-|
 A |0.--0.0|--------|0.--0.0|---1-----|3-3-3-3-|-|
 E |-------|3.----3-|-------|---------|--------|-|


 G |+|--------|-------|-------|-------|----0---|---------|
 D |O|--------|----r01|2--3.--|-------|---0----|---------|
 A |+|2--3-r34|5.-----|-------|2.--2.0|--------|---------|
 E |-|--------|-------|------2|-------|3.----3-|1.-11-11.|


 G |---------|--------|----0---|-------|---------|
 D |1.-10----|3-3-2-2-|---0----|-------|-------00|
 A |-----3.-3|--------|--------|2--0.-0|-----3---|
 E |---------|--------|3.----3-|-------|3-3.3----|


 G |--0-----|----2---|-------|---------|--0-----|
 D |----4---|---2----|-------|-------0-|----3---|
 A |--------|0.----0-|3--2.-2|0--------|--------|
 E |3-----2-|--------|-------|--3.31---|3-----2-|


 G |--------|--------|-----|-----|-----|
 D |----3.--|---20-0-|3----|-----|-----|
 A |---3---3|0.------|-----|-----|-----|
 E |1.------|--------|-----|2----|3~~~~|


AHI ESTA LA ROLA BANDA ESTA MUY PADRE Y ESPERO Y LES GUSTE
SOLO MUHA ANTENCION A LA VERSION ORIGINAL
Suggest correction
Give kudos to tab author, rate the tab!
1 2 3 4 5
comments
print report bad tab
guest
You may want to rate the tab now too:
select rating
Wanna post a correction for this tab? Suggest correction