Oops, an error
Loading. Please wait.

Lejos De Aquí Tab

5 views 1 this week
no commentswrite comment
1 2 3 4 5
3 more votes to show rating
add to favorites
launch autoscroll
font size
0
reset
how to read this tab
guitar tuner
×
Best way to learn
"Lejos De Aquí"
Autoscroll
slow
fast
+/-
esc
set tempo
stop
INTRO: G A F#m7 G

|------------------------------------------------|
|------------------------------------------------|
|-0-7--6--4---0-7---6--4---0-7--6--4---0-7--6--4-|
|------------7------------7-----------7----------|
|------------------------------------------------|
|------------------------------------------------|

|-------------------------------|
|-------------------------------|
|--0-7--6--4--6-4----4------4---|
|-7----------------5---7--5---7-|
|-------------------------------|
|-------------------------------|


|------------------------------------------------------|
|------------------------------------------------------|
|-0-7--6--4---0-7--6--4---0-7--6--4--6-4----4------4---|
|------------7-----------7----------------5---7--5---7-| X2
|------------------------------------------------------|
|------------------------------------------------------|


SOLO: G A F#m7 G

|---------------------------------------------------------|
|---------------------------------------------------------|
|-10h12---10---------------------10-10--------------------|
|-------------12--11--9-9h11-12--------12-11-9-12-11-9----|
|------------------------------------------------------12-|
|---------------------------------------------------------|

|---------------------------------------------------------|
|---------------------------------------------------------|
|-10h12---10--------------------10-10---------------------|
|-------------12--11--9-9h11-12-------12-11-9-------------|
|---------------------------------------------12----------|
|---------------------------------------------------------|
Suggest correction
Give kudos to tab author, rate the tab!
1 2 3 4 5
comments
print report bad tab
guest
You may want to rate the tab now too:
select rating
Wanna post a correction for this tab? Suggest correction