Oops, an error
Loading. Please wait.

Nuestros Sueños Tab

version 2
version 2

Whole song

47 views 1 this week
no commentswrite comment
1 2 3 4 5
3 more votes to show rating
add to favorites
launch autoscroll
font size
0
reset
how to read this tab
guitar tuner
×
Best way to learn
"Nuestros Sueños"
Autoscroll
slow
fast
+/-
esc
set tempo
stop
Esta es una correccion de los tabs anteriores que habia.
Hay algunos acordes que no sonaban y aqui esta la 
version corregida y aumentada. Quiero dedicarla a una
niña muy especial que se ha metido en el fondo de mi
alma. Su nombre: Jessica Fonseca, de 3o de secundaria
de la Justo Sierra. Los acordes al final de cada 
estrofa son opcionales: sólo son para no romper el
círculo

La intro: (Repetir dos veces)

E|-------------------------------------------------------|
A|-8-10----------------------------10-10-10--10-10-10-10-|
D|-----10-10-10--10-10-10-10--12-12----------------------|
G|-------------------------------------------------------|
B|-------------------------------------------------------|
E|-------------------------------------------------------|

E|-------------------------------------------------------|
A|-7-7--------------2-3-3-3--3-3-3-3---------------------|
D|----7-7-7--7-7-7-7-3-----------------------------------|
G|-------------------------------------------------------|
B|-------------------------------------------------------|
E|-------------------------------------------------------|

LA letra:

C                             G   
Hay tanta quietud a mi alrededor
                          Am       
la luz de JAH es un amanecer
                               F 
te miro a los ojos y quiero creer
                            C  
que este momento no terminara
             G             Am
oh oh oh . . . no terminara jamas
        F           G
oh oh no . . .

C                            G
Siento tan cerca tu respiracion
                              Am
el cielo me abraza con tanto calor
                               F
el dulce infinito poder del amor
                             C
que no se resigna a decir adios
             G                Am 
oh oh oh . . . no quiero decir adios
        F           G
oh oh no . . .

C               G 
Y asi nuestros sueños
                  Am
seran promesas a ti
          F            G
seran promesas a mi . . .
C               G
Y asi nuestros sueños
                  Am
seran promesas a ti
          F            G
seran promesas a mi . . .

C                               G
Me miras y entonces recorres mi alma
                                  Am
te tomo en mis brazos y llega la calma:
           F             G
porque tu estas aqui . . .

C                                   G
La brisa en tu pelo, el mar, la montaña,
                                   Am
una nueva esperanza, las tiernas palabras:
           F             G
no quiero estar sin ti

C                             G   
Hay tanta quietud a mi alrededor
                          Am       
la luz de JAH es un amanecer
                               F 
te miro a los ojos y quiero creer
                            C  
que este momento no terminara
             G             Am
oh oh oh . . . no terminara jamas
        F           G
oh oh no . . .

C               G
Y asi nuestros sueños . . .

Em                         F    
JAH nos buscara siempre el camino correcto . . .
Em                   F
y nos guiara a los reales sentimientos . . .
Em                         F
y alla quedara por siempre nuestros conceptos . . .
Em                 G
iluminara el camino y fijara el cariño . . .

Aqui esta el solo:

E|-------------------------------------------------------|
A|-------------------------------------------------------|
D|-------------------------------------------------------|
G|-9-10-12-----------------------------------------------|
B|--------10-12-------12--12-12-10-12-12-10-10--10-12-10-|
E|-------------8-10-12------8--------8------------8------|

E|-------------------------------------------------------|
A|-------------------------------------------------------|
D|-------------------------------------------------------|
G|---------------------12-10--12-------------------------|
B|12-12-10-10--10-12-10---------10-12-------12--12-12-10-|
E|--8------------8-------------------8-10-12------8------|

E|-------------------------------------------------------|
A|-------------------------------------------------------|
D|-------------------------------------------------------|
G|---------------------12-10-----------------------------|
B|12-12-10-10--10-12-10----------------------------------|
E|--8------------8---------------------------------------|

C             G
Y asi nuestros sueños . . .


Bueno, eso es todo. Espero que les guste

JESSICA: TE QUIERO !!!!!!!

P.D. omiti los acentos para que no haya problemas al imprimir
Suggest correction
Give kudos to tab author, rate the tab!
1 2 3 4 5
comments
print report bad tab
guest
You may want to rate the tab now too:
select rating
Wanna post a correction for this tab? Suggest correction