Oops, an error
Loading. Please wait.

Pequeña Dama Bass

75 views 1 this week
no commentswrite comment
1 2 3 4 5
3 more votes to show rating
add to favorites
launch autoscroll
font size
0
reset
guitar tuner
×
Best way to learn
"Pequeña Dama"
Autoscroll
slow
fast
+/-
esc
set tempo
stop
Intro

G||------------------|------------------|
D||--0---------------|--0--------------2|
A||-----4--2--4-----4|-----4--3--3--2---|
E||--------------4---|------------------|

Como estas pequeña dama...

G||-------------------------|-------------------------|
D||-------------------2-2---|-------------------6-6---|
A||--2--2-----2-2--2-------2|--4--4-----4-4--4-------4| x3
E||--------2----------------|--------4----------------|

Para que puedas venir...

G||-------------------------|-------------------------|
D||-------------------7-7---|-------------------9-9---|
A||--5--5-----5-5--5-------5|--7--7-----7-7--7-------7|
E||--------5----------------|--------7----------------|

Esperaba este momento...

G||-------------------------|-------------------------|
D||-------------------2-2---|-------------------6-6---|
A||--2--2-----2-2--2-------2|--4--4-----4-4--4-------4| x3
E||--------2----------------|--------4----------------|


De sentirnos nuestros cuerpos...

G||-------------------------|-------------------------|
D||-------------------7-7---|-------------------9-9---|
A||--5--5-----5-5--5-------5|--7--7-----7-7--7-------7|
E||--------5----------------|--------7----------------|

Arranca de tu piel...

G||-------------------------|-------------------------|  -|-
D||-------------------7-7---|-------------------6-6---|   |
A||--5--5-----5-5--5-------5|--4--4-----4-4--4-------4|   |
E||--------5----------------|--------4----------------|   |
                                                          |
G||-------------------------|----------------------|      |
D||-------------------2-2---|----------------6-6---|      | x2
A||--2--2-----2-2--2-------2|--4-----4-4--4-------4|      |
E||--------2----------------|-----4----------------|     -|-

G||-------------------------|----------------------------------|
D||-------------------7-7---|-------------------6-6-----------2|
A||--5--5-----5-5--5-------5|--4--4-----4-4--4-------3--3--2---|
E||--------5----------------|--------4-------------------------|

Espero estes contenta...

G||-------------------------|-------------------------|
D||-------------------2-2---|-------------------6-6---|
A||--2--2-----2-2--2-------2|--4--4-----4-4--4-------4| x3
E||--------2----------------|--------4----------------|

Todo se compartira

G||-------------------------|-------------------------|
D||-------------------7-7---|-------------------9-9---|
A||--5--5-----5-5--5-------5|--7--7-----7-7--7-------7|
E||--------5----------------|--------7----------------|

Como estas pequeña dama...

G||-------------------------|-------------------------|
D||-------------------2-2---|-------------------6-6---|
A||--2--2-----2-2--2-------2|--4--4-----4-4--4-------4| x3
E||--------2----------------|--------4----------------|

G||-------------------------|-------------------------|
D||-------------------7-7---|-------------------9-9---|
A||--5--5-----5-5--5-------5|--7--7-----7-7--7-------7|
E||--------5----------------|--------7----------------|

G||-------------------------|-------------------2-2---|
D||-------------------4-4---|--2--2-----2-2--2-------2|
A||--2--2-----2-2--2-------2|--------2----------------|
E||--------2----------------|-------------------------|

Arranca de tu piel...

G||-------------------------|-------------------------|  -|-
D||-------------------7-7---|-------------------6-6---|   |
A||--5--5-----5-5--5-------5|--4--4-----4-4--4-------4|   |
E||--------5----------------|--------4----------------|   |
                                                          |
                                                          |
G||-------------------------|----------------------|      |
D||-------------------2-2---|----------------6-6---|      |x2
A||--2--2-----2-2--2-------4|--4-----4-4--4-------4|      |
E||--------2----------------|-----4----------------|     -|-

Aqui entra el sax

G||-------------------------|-------------------------|
D||-------------------------|-------------------6-6---|
A||--------4----------4-4---|--4--4-----4-4--4-------4|
E||--2--2-----2-2--2-------2|--------4----------------|

G||-------------------------|-------------------------------|
D||-------------------4-4---|-------------------6-6---------|
A||--2--2-----2-2--2-------2|--4--4-----4-4--4-------4------|
E||--------2----------------|--------4----------------------|

G||-------------------------|-------------------------|------------|
D||-------------------------|-------------------6-6---|--------0--2|
A||--------4----------4-4---|--4--4-----4-4--4-------4|--2--4------|
E||--2--2-----2-2--2-------2|--------4----------------|------------|

Arranca de tu piel...

G||-------------------------|-------------------------|  -|-
D||-------------------7-7---|-------------------6-6---|   |
A||--5--5-----5-5--5-------5|--4--4-----4-4--4-------4|   |
E||--------5----------------|--------4----------------|   |
                                                          |
G||-------------------------|----------------------|      |
D||-------------------2-2---|----------------6-6---|      |x3
A||--2--2-----2-2--2-------4|--4-----4-4--4-------4|      |
E||--------2----------------|-----4----------------|     -|-

G||-------------------------|-------------------------|------------|
D||-------------------7-7---|-------------------6-6---|--------0--2|
A||--5--5-----5-5--5-------5|--4--4-----4-4--4-------4|--2--4------|
E||--------5----------------|--------4----------------|------------|

G||-------------------------|-------------------------|
D||-------------------2-2---|-------------------6-6---|
A||--2--2-----2-2--2-------2|--4--4-----4-4--4-------4|
E||--------2----------------|--------4----------------|

Hasta que termina
Suggest correction
Give kudos to tab author, rate the tab!
1 2 3 4 5
comments
print report bad tab
guest
You may want to rate the tab now too:
select rating
Wanna post a correction for this tab? Suggest correction