Oops, an error
Loading. Please wait.

Polución Bass

21 views 1 this week
no commentswrite comment
1 2 3 4 5
3 more votes to show rating
add to favorites
×
Save as Personal and add changes to this tab that will be seen only by you. Learn more ›
×
You can save this tab as Personal to edit and correct it or add notes. All changes will be seen only by you. Learn more »
save as personal
new!
launch autoscroll
font size
0
reset
guitar tuner
Autoscroll
slow
fast
+/-
esc
set tempo
stop
Bueno pues esta rola es una cancion bien chida
aqui se las dejo tal y como se va presentando...
Espero que logren agarrarle...suerte!!!

Intro

G||-----------------------------|-----------------------------|
D||-----------------------------|-----------------------------|
A||-----7-----7-----7-----7--777|-----7-----7-----7-----7--777|
E||--5-----5-----5-----5--------|--7-----7-----7-----7--------|

G||-----------------------------|--------------|------------|
D||-----------------------------|--------------|------------|
A||-----7-----7-----7-----7--777|--5--5--5--888|--5--8--7--5|
E||--5-----5-----5-----5--------|--------------|------------|

G||-----------------------------|-----------------------------|
D||-----------------------------|-----------------------------|
A||-----7-----7-----7-----7--777|-----7-----7-----7-----7--777|
E||--5-----5-----5-----5--------|--7-----7-----7-----7--------|

G||-----------------------------|----------|
D||-----------------------------|----------|
A||-----7-----7-----7-----7--777|--5--8----|
E||--5-----5-----5-----5--------|--------88|

El sol que está allá?
G||-----------------------------|-----------------------------|
D||-----------------------------|-----------------------------|
A||-----7-----7-----7-----7--777|-----7-----7-----7-----7--777|
E||--5-----5-----5-----5--------|--7-----7-----7-----7--------|

G||-----------------------------|-------------|---------|
D||-----------------------------|-------------|---------|
A||-----7-----7-----7-----7--777|--5--5--5--88|--5--8--7|
E||--5-----5-----5-----5--------|-------------|---------|

G||-----------------------------|-----------------------------|
D||-----------------------------|-----------------------------|
A||-----7-----7-----7-----7--777|-----7-----7-----7-----7--777|
E||--5-----5-----5-----5--------|--7-----7-----7-----7--------|

G||-----------------------------|--------------|---------------|
D||-----------------------------|--------------|---------------|
A||-----7-----7-----7--33--3--2-|--2--2--33--22|-----------3333|
E||--5-----5-----5--------------|--------------|--5--5?5-------|

G||-----------------------|--------------------|
D||-----------------------|-------------------2|
A||-----------------------|-----------333--3---|
E||--5--5--5--333--0--3--5|--5--5--5-----------|

G||----------------------------|
D||--------0--2--0-------------|
A||--0--3------------3--2--3--0|
E||----------------------------|

Aquí entran los metales?
G||-----------------------------|-----------------------------|
D||-----------------------------|-----------------------------|
A||-----7-----7-----7-----7--777|-----7-----7-----7-----7--777|
E||--5-----5-----5-----5--------|--7-----7-----7-----7--------|

G||-----------------------------|-------------|---------|
D||-----------------------------|-------------|---------|
A||-----7-----7-----7-----7--777|--5--5--5--88|--5--8--7|
E||--5-----5-----5-----5--------|-------------|---------|

G||-----------------------------|-----------------------------|
D||-----------------------------|-----------------------------|
A||-----7-----7-----7-----7--777|-----7-----7-----7-----7--777|
E||--5-----5-----5-----5--------|--7-----7-----7-----7--------|

G||-----------------------------|--------------|---------------|
D||-----------------------------|--------------|---------------|
A||-----7-----7-----7--33--3--2-|--2--2--33--22|-----------3333|
E||--5-----5-----5--------------|--------------|--5--5?5-------|

G||-----------------------|--------------------|
D||-----------------------|-------------------2|
A||-----------------------|-----------333--3---|
E||--5--5--5--333--0--3--5|--5--5--5-----------|

G||-------------------------|
D||--------0--2--0----------|
A||--0--3------------3--2--3|
E||-------------------------|

Y si algún tiempo en este valle?
G||-------------------------------------|--------4---|--4-------|
D||--------3-----------3---------------2|-----2-----2|-----5--22|
A||-----3-----3-----3-----3-(slide)-5---|--2---------|----------|
E||--1-----------1----------------------|----?-------|----------|

G||-------------------------------------|-------------------|
D||--------3-----------3---------------2|---------------4--2|
A||-----3-----3-----3-----3-(slide)-5---|--2-(slide)-5------|
E||--1-----------1----------------------|----?--------------|

G||--4-------|
D||-----5--22|
A||----------|
E||----------|

Pero la gente no supo respetar?
G||-------------------------------------|--------4------4------------|
D||--------3-----------3---------------2|-----2-----22-----2(slide)-1|
A||-----3-----3-----3-----3-(slide)-5---|--2-------------------------|
E||--1-----------1----------------------|----?-----------------------|

G||--------------------------------|--------------|
D||-----------7--3--------3--------|---------55555|
A||--5-----5--------5--5-----5?5--7|--5--77-------|
E||-----5--------------------------|----?---------|

Y ahora cuida la tierra, escucha lo que te enseña?
G||--------------------|-----------4-----4-----------| -|-
D||--------------------|--2--0--------2-----2-----222|  |
A||--7-----7-----------|--------3--------------2-----|  |
E||-----5-----5--0--555|----?------------------------|  |
                                                        |x2
G||--4----------|-------------|---------------------|   |
D||-----5--22---|--7----7-----|--7-----5--5--5------|   |
A||------------5|-----5----555|-----5-----------7777|   |
E||-------------|----?--------|---------------------|  -|-

La vidaaaaa, yo dije amor de jah?
G||-----------------------------|-----------------------------|
D||-----------------------------|-----------------------------|
A||-----7-----7-----7-----7--777|-----7-----7-----7-----7--777|
E||--5-----5-----5-----5--------|--7-----7-----7-----7--------|

G||-----------------------------|--------------|------------|
D||-----------------------------|--------------|------------|
A||-----7-----7-----7-----7--777|--5--5--5--888|--5--8--7--5|
E||--5-----5-----5-----5--------|--------------|------------|

G||-----------------------------|-----------------------------|
D||-----------------------------|-----------------------------|
A||-----7-----7-----7-----7--777|-----7-----7-----7-----7--777|
E||--5-----5-----5-----5--------|--7-----7-----7-----7--------|

G||-----------------------------|-------------|--------|
D||-----------------------------|-------------|--------|
A||-----7-----7-----7-----7--777|--5--5--5--88|--5--777|
E||--5-----5-----5-----5--------|-------------|--------|
Suggest correction
Give kudos to tab author, rate the tab!
1 2 3 4 5
comments
print report bad tab
guest
Wanna post a correction for this tab? Suggest correction