Oops, an error
Loading. Please wait.

Canción Pequeña Para Un Amor Eterno. Tab

11 views 1 this week
no commentswrite comment
1 2 3 4 5
3 more votes to show rating
add to favorites
launch autoscroll
font size
0
reset
how to read this tab
guitar tuner
×
Best way to learn
"Canción Pequeña Para Un Amor Eterno."
Autoscroll
slow
fast
+/-
esc
set tempo
stop
booxoo!!!                 cualquier duda a super_bocho@

afinacion estandar...

Acordes basicos:

|eBGDAE|

|300023|G
|3102x3|C/G
|x303x3|Dmadd11(no5)/G
|02220x|A
|01020x|Am7
|03202x|Asus4/B
|01023x|C
|0230x2|Asus4/F#
|x5224x|A/C#
|0320xx|Dsus2
|2021xx|B7/D#
|3002xx|Em

Armonicos:

    E*  D#*  D*  C*
e|-(12)-(7)-(7)-(5)-
B|-(12)-(7)-(7)- x -
G|-(12)-(7)-(7)- x -
D|-  x - x - x - x -
A|-  7 - 6 - 5 - 3 -
E|-  x - x - x - x -

Simbología:

s : slide
h : hammer-on/pull-off
(): armonico
* : arpejeo rapido (opcional)
**: dejar sonando
°||°: significa que el contenido de esa parte se repite


Intro:
e|--------------------------------------|
B|-----0----1---1-0------3----1---1-0---|
G|-----0----0---0-0------0----0---0-0---|
D|---0---0--2-2--------3---3--2-2-------|
A|--------------------------------------|
E|-3--------3--------3--------3---------|
            *                 *

e|--------------------------------------|
B|-----0----1---1-0------3----1---1-0---|
G|-----0----0---0-0------0----0---0-0---|
D|---0---0--2-2--------3---3--2-2-------|
A|--------------------------------------|
E|-3--------3--------3--------3---------|
            *                 *

e|------------------------------------------|
B|-----0----1h0-----0--2---2----1----3------|
G|-----0----0-----0----3-----3--0----2-2----|
D|---0---0--2---2------0-0------2-2--0------|
A|----------0----------2--------3-----------|
E|-3----------------------------------------|
            *          *

e|-----------------------------------------------------|
B|-0h1h0---------0------0h2h0------------3-----3----3--|
G|-0-----0--------------0----------------2-----0----2--|
D|---------0h2h0------2-------2--------0----------0----|
A|------------------0------------0-1s2-----0-3---------|
E|-3---------------------------------------------------|

Letra

Siempre habra tiempo en las canciones donde pueda contemplar la eternidad
e|------------------------------------------0--2----|
B|-----1h0---------0h2h0--------3-----1--5--3--0----|
G|---------0-------0-----0------2-----0--2--2--2----|
D|---0-----------2------------0---0---2--2--0--1----|
A|------------0-------------2---------3--4----------|
E|-3------------------------------------------------|
                                      *  *  *  *
Tu sonrisa transparente, mi caricia en tu frente y la tarde que contigo
e|---(12)-----------(7)---------(7)---------(5)----------3--------5-----|
B|-------(12)----------(7)---------(7)---------------5---4----4-----2---|
G|-----------(12)---------(7)---------(7)----------4-----3--3---3-----3-|
D|-----------------------------------------------5-------5--------------|
A|-7--------------6------------5----------3--------------3--------------|
E|----------------------------------------------------------------------|
                                                         *

Puente:

volvera
e|-----------------------------------------------|
B|---3h1h0--------0h2h0------------3-----3----3--|
G|---------0------0----------------2-----0----2--|
D|--------------2-------2--------0---------0-----|
A|------------0------------0-1s2-----0-3---------|
E|-3---------------------------------------------|

e|-----------------------------------------------|
B|-----1h0--------0h2h0------------3-----3----3--|
G|---------0------0----------------2-----0----2--|
D|---0----------2-------2--------0----------0----|
A|------------0------------0-1s2-----0-3---------|
E|-3---------------------------------------------|


Letra

Los recuerdos son tristezas dobles que liberan o construyen soledad
e|------------------------------------------0--2----|
B|-----1h0---------0h2h0--------3-----1--5--3--0----|
G|---------0-------0-----0------2-----0--2--2--2----|
D|---0-----------2------------0---0---2--2--0--1----|
A|------------0-------------2---------3--4----------|
E|-3------------------------------------------------|
                                      *  *  *  *

Mientras tengo que cantar Con mi espera y tu silencio Y esta voz ligada
e|---3--------2--------0h2h0--------------4---|  |-3------5---|
B|-----0--------0------------3----5---5-----5-|  |-4---4----4-|
G|-------0--------2------------2--4-4---4-----| °|-3-3---3----|°
D|-2--------1--------0------------5-----------| °|-5----------|°
A|--------------------------------3-----------|  |-3----------|
E|--------------------------------------------|  |------------|
                                  *                 *

Puente:

Al viento Escucharas
e|---------------------------------|
B|---3h1h0----1-0------------0-1---|
G|---------0--0-0--2-0--2----------|
D|------------2---------0-0--1-----|
A|------------3----4---------------|
E|-3-------------------------------|

                                                    haaa!!!
e|---3--------2--------0h2h0--------------0--------|-3-|-(5)-|
B|-----0--------0------------3--------3--------3---|-4-|-----|
G|-------0--------2------------2----0---0---0----0-|-3-|-----|
D|-2--------1--------0-----------------------------|-5-|-----|
A|--------------------------------3----------------|-3-|-----|
E|-------------------------------------------------|---|-----|
                                                    * *

Letra:

Casi siempre vivo los recuerdos Como un sueño transformado en
e|-----------------------------------------0--2----|
B|-----0------0h2h0------------3-----3--0--3--0----|
G|-----0------------0----------2-----0--2--2--2----|
D|---0---0-------------------0---0---2--2--0--1----|
A|----------0----------0-1s2---------3--4----------|
E|-3-----------------------------------------------|
                                     *  *  *  *

Realidad, Tu me haz enseñado a amar            Y en tu nombre tengo atada
e|---3--------2--------0h2h0--------------------0----0-------0-----|
B|-----0--------0------------3--------0h2h0---0---0--1---1-----1---|
G|-------0--------2------------2------------2--------0-0---0-----0-|
D|-2--------1--------0--------------2----------------2-------------|
A|--------------------------------0------------------0-------------|
E|-----------------------------------------------------------------|
                                                     *
               mi eternidad
e|-3h2---2h0----------------------------------------------|
B|-1-----1---------------0--------1---------3-----3----3--|
G|-----2-----2-----------0--------0---------2-----0----2--|
D|-0------------0------0---0----2---2-----0---0------0----|
A|----------------------------0-------1s2--------3--------|
E|----------------2--3------------------------------------|


e|----------------------------------------------------|-3-|
B|-----1h0---------0h2h0---------3------3----3--1h0---|-3-|
G|---------0-------0-----0-------2------0----2--0---0-|-0-|
D|---0-----------2-------------0---0-------0----2h0---|-0-|
A|------------0------------1s2--------3---------------|-2-|
E|-3--------------------------------------------3-----|-3-|
                                                *      * *
Suggest correction
Give kudos to tab author, rate the tab!
1 2 3 4 5
comments
print report bad tab
guest
You may want to rate the tab now too:
select rating
Wanna post a correction for this tab? Suggest correction