Oops, an error
Loading. Please wait.

A Mis Veinte Tab

1 view 1 this week
no commentswrite comment
1 2 3 4 5
3 more votes to show rating
add to favorites
launch autoscroll
font size
0
reset
how to read this tab
guitar tuner
Autoscroll
slow
fast
+/-
esc
set tempo
stop
Help us to improve Ultimate-Guitar.com Take our survey!
×
Esta es la version correcta de 'A mis 20' si tienen
alguna duda queja o comentario mandenme un mail....Ahi va

1)----------------------------------------------||
2)--1--1--1--1-3--5--3-3--3-3--1h3--5--6--5--3p1||
3)----------------------------------------------||
4)----------------------------------------------||
5)----------------------------------------------||
6)----------------------------------------------||


1)----------------------------------------------||
2)--8--6--3p1--8--6--5p3--1--0h1-1--0--1--3--5--||
3)----------------------------------------------||
4)----------------------------------------------||
5)----------------------------------------------||
6)----------------------------------------------||


A)C                            F      G
  A    mis    veinte   empiezo a empacar
    F                Dm                  G
La vida q? llevo mi casa no encuentro lugar
C                        F         G
Hice un trato con el dueño de un  bar
      F                    Dm                G
Nos prestan un techo y a cambio tengo que tocar


B)  F                  C
Si hay o no hay da lo mismo
    Em                Am
El pan es comida de dioses
        F                  Dm
Y esta vez festejo con un vino
     F                G
Que me regale algún amigo

Sabe mucho mejor


Coro:

       F             G
Y por mi pasaría mi vida
              C
haciendo canciones
           Am
Riendo de nada
                   F
Durmiendo sin colchón
               G
O en alguna pensión
                    C
De la mano junto a vos

1)------------||
2)--0--1--3--5||
3)------------||
4)------------||
5)------------||
6)------------||

     F             G
Por mi pasaría mi vida
              C
Haciendo canciones
              Am
Tirado en el pasto
                F
Es mucho mas barato
                G
mirar salir el sol
                    C
de la mano junto a vos  (Aqui el bajo toca: 4)---------||
                                            5)--------2||
                                            6)-3-3--3--||
y después de eso la guitarra toca 'G' 3 veces, pero
se puede hacer todo con la guitarra)

A)C                      F    G
  Es un riesgo lo vamos a asumir
   F                 Dm                 G
mejor apostar a la suerte que no ser feliz
C                     F     G
A mis veinte empiezo a empacar
    F                Dm                   G
viviendo contigo me cago en el dueño del bar,
                C       G
me cago en el dueño  y también en el bar.

Coro:

       F             G
Y por mi pasaría mi vida
              C
haciendo canciones
           Am
Riendo de nada
                   F
Durmiendo sin colchón
               G
O en alguna pensión
                    C
De la mano junto a vos

1)------------||
2)--0--1--3--5||
3)------------||
4)------------||
5)------------||
6)------------||

     F             G
Por mi pasaría mi vida
              C
Haciendo canciones
              Am
Tirado en el pasto
                F
Es mucho mas barato
                G
mirar salir el sol
                    C
de la mano junto a vos
         G
y de la mano junto a vos


1)----------------------------------------------||
2)--1--1--1--1-3--5--3-3--3-3--1h3--5--6--5--3p1||
3)----------------------------------------------||
4)----------------------------------------------||
5)----------------------------------------------||
6)----------------------------------------------||


1)----------------------------------------------||
2)--8--6--3p1--8--6--5p3--1--0h1-1--0--1--3--5--||
3)----------------------------------------------||
4)----------------------------------------------||
5)----------------------------------------------||
6)----------------------------------------------||


B)  F                  C
Si hay o no hay da lo mismo
    Em                Am
El pan es comida de dioses
        F                  Dm
Y esta vez festejo con un vino
     F                G         G
Que me regale algún amigo


Coro:

       F             G
Y por mi pasaría mi vida
              C
haciendo canciones
           Am
Riendo de nada
                   F
Durmiendo sin colchón
               G
O en alguna pensión
                    C
De la mano junto a vos

1)------------||
2)--0--1--3--5||
3)------------||
4)------------||
5)------------||
6)------------||

     F             G
Por mi pasaría mi vida
              C
Haciendo canciones
              Am
Tirado en el pasto
                F
Es mucho mas barato
                G
mirar salir el sol
                    C
de la mano junto a vos

                  F
y es mucho mas barato
                 G
 mirar salir el sol
                     F   G   C
 de la mano junto a vos.


Muy buena esta cancion....
se la dedico a la ronit testa que la quiero mucho....
Suggest correction
Give kudos to tab author, rate the tab!
1 2 3 4 5
comments
print report bad tab
guest
You may want to rate the tab now too:
select rating
Wanna post a correction for this tab? Suggest correction