Oops, an error
Loading. Please wait.

Corazón Dolido Tab

12 views 1 this week
no commentswrite comment
1 2 3 4 5
3 more votes to show rating
add to favorites
launch autoscroll
font size
0
reset
how to read this tab
guitar tuner
Autoscroll
slow
fast
+/-
esc
set tempo
stop
Help us to improve Ultimate-Guitar.com Take our survey!
×
Escuché esta canción hace ya un tiempo, como parte de la
banda sonora de una película nacional, y al instante me
pareció una excelente canción. Así que decidí sacar los
acordes para tocarla con compañeros de la Universidad.
Aclaro que no se trata de una transcripción perfecta, pero
(en mi opinión) suena bien. Dejo sólo los acordes y el punteo
de ciertos pasajes, la parte rítmica y la alternación de
bajos es muy sencilla de sacar escuchando la canción
detenidamente. Disfruten de esta gran canción de 'El Gordo'.

(NOTA: Todos los acordes deben ser en su forma con cejilla)


INTRO:

 Am                Dm   E               Am
e--------8--5-8-5-8-5-7----12-12/13-12-10-8-7-5-
B-----------------------------------------------
G-----------------------------------------------
D-----------------------------------------------
A-----------------------------------------------
E-----------------------------------------------

                Dm  E                Am
e----8--5-8-5-8-5-7----12-12/13-12-10-8-7-5-----
B-----------------------------------------------
G-----------------------------------------------
D-----------------------------------------------
A-----------------------------------------------
E-----------------------------------------------


Am                 Dm E                 Am
  Pobrecita, se quedó solita en la madrugada.

                 Dm E                       Am
  Una bala le quitó lo que ella siempre esperaba.

     Dm              E         Am
  Y cuando llega el frío le comienza a doler otra vez.

                                Dm    E                          Am
  Hay una nenita al lado que pregunta si eso a ella le puede suceder.

    Dm        E           Am          Dm       E        Am        G
  Y baja su carita de asustada, y el sueño le gana otra vez.


CORO:

   F        G      Am     F         G      Am
  ¿Dónde te miro mañana? ¿Dónde vas a amanecer?

   F        G      Am        F         G         Am
  ¿Dónde te miro mañana? ¿En dónde voy yo a amanecer?


  Uh, uh, uh. Uh, uh, uh.


INTERLUDIO:

 Am                    Dm           E        Am
e----8-7-5-7-8-10-8-7-5----------5-----------------------
B-----------------------8-6--6/8---8-6-5---6-5-----------
G----------------------------------------7-----7-5-------
D--------------------------------------------------8-7-7-
A--------------------------------------------------------
E--------------------------------------------------------

 Am                    Dm           E        Am
e----8-7-5-7-8-10-8-7-5----------5-----------------------------------
B-----------------------8-6--6/8---8-6-5---6-5-----------------------
G----------------------------------------7-----7-5---------7-5-------
D--------------------------------------------------8-7-7-------8-7-7-
A--------------------------------------------------------------------
E--------------------------------------------------------------------


                                    Dm                   E      Am
  No son las balas la que me alejan hoy de ti, es mi corazón dolido.

                                Dm         E                   Am        G
  No hace falta que te dé una explicación, sabes por qué te lo digo.


CORO:

   F        G      Am     F         G      Am
  ¿Dónde te miro mañana? ¿Dónde vas a amanecer?

   F        G      Am        F         G         Am
  ¿Dónde te miro mañana? ¿En dónde voy yo a amanecer?

      F         G      Am       F         G         Am
  ¿En dónde vas a amanecer? ¿En dónde voy yo a amanecer?


  Uh, uh, uh. Uh, uh, uh.


OUTRO:

 Am             Dm  E                Am
e----8--5-8-5-8-5-7----12-12/13-12-10-8-7-5-----
B-----------------------------------------------
G-----------------------------------------------
D-----------------------------------------------
A-----------------------------------------------
E-----------------------------------------------

 Am                    Dm           E
e----8-7-5-7-8-10-8-7-5----------5--------------------------------0-
B-----------------------8-6--6-8---8-6-5---6-5------------------1---
G----------------------------------------7-----7-5------------2-----
D--------------------------------------------------8-7-7----2-------
A---------------------------------------------------------0---------
E-------------------------------------------------------------------
Suggest correction
Give kudos to tab author, rate the tab!
1 2 3 4 5
comments
print report bad tab
guest
You may want to rate the tab now too:
select rating
Wanna post a correction for this tab? Suggest correction