Oops, an error
Loading. Please wait.

L´últim Heretge Tab

52 views 1 this week
no commentswrite comment
1 2 3 4 5
3 more votes to show rating
add to favorites
launch autoscroll
font size
0
reset
how to read this tab
guitar tuner
Autoscroll
slow
fast
+/-
esc
set tempo
stop
Help us to improve Ultimate-Guitar.com Take our survey!
×
Es una caço molt senzilla i fàcil de tocar

La guitarra toca ritme ska durant tota la canço

   Em

E--------------------|
B--------------------|
G--------------------|
D--------------------|
A--7-6-5-4-3-2-1-3-2-|
E--------------------|


 Em                            D
Ací és on van cremar l?últim heretge
  B                           Em
i ací van traure a passejar els tancs.
                           D
Ací la nit encara és freda i fosca
 B                               Em
i les verges nodreixen el drac de tres caps.

                          D
Ací mana la llei del sant ofici.
 B                       Em
Ací el silenci és com un cadafal
                     D
on passen cada dia pel suplici
 B                       Em
mestres i bruixes, ateus i joglars.


 B                      Em
I entre la foscor de la nit
                 B               Em
he vist dos ulls  el camí.
 B                        Em
I enmig d?una història tan trista
             B
un mestre explicava
               Em
als alumnes un dia:

 G                    B
No podran, no sabran aturar
                 Em
l?explosió de colors
       B         Em
quan arribe la llum.

 G                     B
No sabran, no podran rebutjar
                Em
l?impacte a la cara
     B       Em
de tota la llum.
   B           Em        B          Em
E--7--------------7-7-7-7---------------|
B----7-8-10-8-7-----------7-8-10-8-7----|
G---------------9--------------------9--|
D---------------------------------------|     X2
A---------------------------------------|
E---------------------------------------|


E--------------------|
B--------------------|
G--------------------|
D--------------------|
A--7-6-5-4-3-2-1-3-2-|
E--------------------|

 Em                         D
Ací és on van cremar l?últim heretge.
  B                    Em
ací cremaven llibres i escriptors.
                     D
Ací patim mordassa i dret de cuixa,
  B                     Em
cisa i usura, botxins i senyors

                   D
Ací la nit és una fortalesa
  B                  Em
on resta empresonada la raó
                     D
Captiva va camí de la foguera
  B                         Em
i bramen els necis,covards i traïdors


 B                      Em
I entre la foscor de la nit
                 B               Em
he vist dos ulls  el camí.
 B                        Em
I enmig d?una història tan trista
             B
un mestre explicava
               Em
als alumnes un dia:

 G                    B
No podran, no sabran aturar
                 Em
l?explosió de colors
       B         Em
quan arribe la llum.

 G                     B
No sabran, no podran rebutjar
                Em
l?impacte a la cara
     B       Em
de tota la llum.

E--7--------------7-7-7-7--------------7---------------
B----7-8-10-8-7------------7-8-10-8-7----7-8-10--8-7---
G---------------9---------------------9--------------9-
D------------------------------------------------------
A------------------------------------------------------
E------------------------------------------------------

E-7-7-7-7--------7-8-8-7--7-7-7-7-8-10-8-7-------7-8-7---
B--------7-8-10---------------------------10-10-------10-
G--------------------------------------------------------
D--------------------------------------------------------
A--------------------------------------------------------
E--------------------------------------------------------

E--------------7---7-7-7-7-8-10-8-7-------7-8-7--------------------|
B-8-8-8-8-8-10----------------------10-10-------10-8-8-8-8-10-8-7--|
G------------------------------------------------------------------|
D------------------------------------------------------------------|
A------------------------------------------------------------------|
E------------------------------------------------------------------|


 B                Em
Eeei, santa és la creu,
 B               Em
i santa, la ignorancia
 B                  Em
sagrats son els cristos penitents
 B                    Em
sagrat el dolor sagrada la espassa

 B           Em
Juetes, sodomites,
 B          Em
ateus i conversos,
 B           Em
bruixes protestants
 B           Em
i adulters confessos

 B             Em
Eeei, santa és la creu,
 B              Em
i santa, la ignorancia
 B                    Em
sagrats son els cristos penitents
 B                    Em
sagrat el dolor sagrada la espassa

 B                  Em
No podran, no sabran aturar
 B            Em
l?explosió de colors
 B            Em
quan arribe la llum.
 B               Em
No sabran, no podran rebutjar
 B          Em
l?impacte a la cara
 B         Em
de tota la llum. (x2)

Espere que os siga d'utilitat i os agrade com està
Un salut
Suggest correction
Give kudos to tab author, rate the tab!
1 2 3 4 5
comments
print report bad tab
guest
You may want to rate the tab now too:
select rating
Wanna post a correction for this tab? Suggest correction