Oops, an error
Loading. Please wait.

En La Casa Del Señor Bass Tab

17 views 1 this week
no commentswrite comment
1 2 3 4 5
3 more votes to show rating
add to favorites
launch autoscroll
font size
0
reset
guitar tuner
×
Best way to learn
"En La Casa Del Señor"
Autoscroll
slow
fast
+/-
esc
set tempo
stop
Quien kree en ti zeñor...
----------------------------------
----------------------------------
--5---5-8-7-5--8-7-5-3-5-7-5/3-5--
----5-----------------------------

Dezpuéz del punteo va ezto:
-----------------------------
-----------------------------
--3-6-5555-66--3-6-5555-6-3--
-----------------------------

---------------------------
---------------------55----
--3-6-5555-66--3-6-55---3--
---------------------------

En la caza del zeñor...
-----------------------------
-----------------------------
--3-6-5555-66--3-6-5555-6-3--
-----------------------------

---------------------------
---------------------55----
--3-6-5555-66--3-6-55---3--
---------------------------

Kedate azí...
-------------------
------3-33---------
--5-55----555-6-3--  x3
-------------------

------------------
------------------
------3-33--------
--5-55----55-6-3--

Elloz paxan todo el día...
-----------------------------
-----------------------------
--3-6-5555-66--3-6-5555-6-3--  x3
-----------------------------

---------------------------
---------------------55----
--3-6-5555-66--3-6-55---3--
---------------------------

Kedate azí...
-------------------
------3-33---------
--5-55----555-6-3--  x3
-------------------

------------------
------------------
------3-33--------
--5-55----55-6-3--

-----------------------------
-----------------------------
--3-6-5555-66--3-6-5555-6-3--
-----------------------------

---------------------------
---------------------55----
--3-6-5555-66--3-6-55---3--
---------------------------

Ya zabez lo ke te piden...
-----------------------------
-----------------------------
--3-6-5555-66--3-6-5555-6-3--
-----------------------------

---------------------------
---------------------55----
--3-6-5555-66--3-6-55---3--
---------------------------

-----------------------------
-----------------------------
--3-6-5555-66--3-6-5555-6-3--
-----------------------------

---------------------------
---------------------55----
--3-6-5555-66--3-6-55---3--
---------------------------

Ezta kanxión ez una de las mejores de GP.
Ez muy bakana y muy fázil de sakar... Zoyenxela...
Suggest correction
Give kudos to tab author, rate the tab!
1 2 3 4 5
comments
print report bad tab
guest
You may want to rate the tab now too:
select rating
Wanna post a correction for this tab? Suggest correction