Oops, an error
Loading. Please wait.

Máquinas Tab

7 views 1 this week
no commentswrite comment
1 2 3 4 5
3 more votes to show rating
add to favorites
×
Save as Personal and add changes to this tab that will be seen only by you. Learn more ›
×
You can save this tab as Personal to edit and correct it or add notes. All changes will be seen only by you. Learn more »
save as personal
new!
launch autoscroll
font size
0
reset
how to read this tab
guitar tuner
Autoscroll
slow
fast
+/-
esc
set tempo
stop
INTRO

todo en |A|


e|----------------------------------|
b|----------------------------------|
g|----6---6h7-6---6----6------------|  x2
d|--7---7-------9----7---7-6---6-7--|
a|---------------------------7------|
e|----------------------------------|
/


e|---------------------|----------------|
b|---------------------|----------------|
g|--------9------------|---------9-9----|
d|----6-9---9-7-6------|---6-7-9--------|
a|--7-------------9-7--|-7--------------|
e|---------------------|----------------|
/  ________________/
            |
           V
e|---------------------|----------------|
b|---------------------|----------------|
g|---------------------|----------------|
d|-------------------6-|-6-7-6-9-7-6----|
a|---------------------|----------------|
e|---------------------|----------------|
/
   repite lo de arriba
   pero termina en (6)

 A
Soy una maquina, controlare
 A
Toda la carretera y es te lugar
 E
Y voy contaminando por la ciudad
 E
La calle es toda mía fuera de aquí


 A
Si cruzas mi camino te aplastaré
 A
Otro idiota al volante y que más da
 E
Si es pobre ira a la cárcel ,yo esperare
 E
Si hay plata la justicia podrá comprar


 A    G   D
Maquinas se duermen junto a ti
 A    G   D            E
Maquinas sueñas con tenerlas
 A    G   D
Maquinas se duermen junto a ti
 A    G   D            E
Maquinas


|A|E|

 A            G-A        G
Soy una maquina dominare
 A                  G-A                   G
Me iré tragando el mundo ,cualquier lugar
  E                  D-E              D
El trabajo de los hombres es para mi
 E             D-E
Yo no tengo barriga ni corazón

 A
Mi patrón esta contento me quiere así
 A
No me quejo ni hago paro y el es feliz
 E
Y así voy engordando su capital
 E
y moviendo la industria


 A    G   D
Maquinas se duermen junto a ti
 A    G   D            E
Maquinas sueñas con tenerlas
 A    G   D
Maquinas se duermen junto a ti
 A    G   D            E
Maquinas

PROYECTO DE INTRO

A        G#-A
Y maquinas aquí
         G#-A
Y maquinas allá
                  D     B    G#-B
Y música de maqui la la la la la


A        G#-A
Y cual es la solución
          G#-A
Habrá que envejecer
                       D     B    G#-B   A
Viendo pasar el tiempo la la la la la


    (*)
|A G D D| X4

      (**)
|D D D A|

RIFF EN LOS VERSOS IMPARES DEL ESTRIBILLO Y EN (*)


e|--------------------------|
b|--------------------------|
g|--------------------------|
d|--7--5-4--5-7--5-4--5-7---|
a|--------------------------|
e|--------------------------|
/

 FINAL EN |A| (**)

e|--------------------------|
b|--------------------------|
g|--------------------------|
d|----4-5-7-----------------|
a|--5-----------------------|
e|--------------------------|
/
Suggest correction
Give kudos to tab author, rate the tab!
1 2 3 4 5
comments
print report bad tab
guest
Wanna post a correction for this tab? Suggest correction