Oops, an error
Loading. Please wait.

Pobrerización Chords

5 views 1 this week
no commentswrite comment
1 2 3 4 5
3 more votes to show rating
add to favorites
launch autoscroll
font size
0
reset
transpose
0
reset
display chords
guitar tuner
Autoscroll
slow
fast
+/-
esc
set tempo
stop
Help us to improve Ultimate-Guitar.com Take our survey!
×
G# (X 4)
De coqueteo con las multinacionales
Para garantizarles todo el bienestar
Hoy los estados mas pobres del mundo
Venden lo poco que les queda de libertad

          G#
La libertad de conseguir un buen trabajo
                                     D#
donde te paguen lo que tienen que pagar
          C#                       G#
La libertad de masturbarme por si acaso
                D#         C#     G#
no encuentro a nadie que me quiera acompañar

     C#             G#
Idiotizados por el dinero
         D#   C#     G#
van aumentando su capital
     C#                  G#
los gobernantes del tercer mundo
               D#   C#  G#
le dan el culo a los demás

y el gran negocio defender el medio ambiente
y defender el ataque de la radiación
las empresas que contaminan el planeta
también te venden la solución

y seguirán sacando el jugo de los pobres
en nombre del dinero y la gloria de dios
globalizando el mundo solo a beneficio personal
y que unos pocos gocen de la situación.

     C#             G#
Idiotizados por el dinero
         D#   C#     G#
van aumentando su capital
     C#                  G#
los gobernantes del tercer mundo
               D#   C#  G#
le dan el culo a los demás

y acomodados por los banqueros
con tu dinero pasearan
por una isla en el caribe
y a su manera ya se acordaran de ti


4 -----9-----9------7----------------------7---9----9--7-------9----
5 ------------------------10----------10------------------10-----10-
6 ------------------------------10----------------------------------

4 -----9-----9------7----------------------7---9---9--7----------
5 ------------------------10----------10------------------10--9--
6 ------------------------------10-------------------------------

4 -----10-10-10-10----------------10---9----7---9-------
5 ------------------------7-7-7-7--------------------10-
6 ------------------------------------------------------

4 -------------10----------10-----9----7-----------------
5 ------10-------------9--------------------10---7---10--
6--10----------------------------------------------------
Suggest correction
Give kudos to tab author, rate the tab!
1 2 3 4 5
comments
print report bad tab
guest
You may want to rate the tab now too:
select rating
Wanna post a correction for this tab? Suggest correction