Oops, an error
Loading. Please wait.

Sol (No Tenes Perdón) Tab

1 view 1 this week
no commentswrite comment
1 2 3 4 5
3 more votes to show rating
add to favorites
launch autoscroll
font size
0
reset
how to read this tab
guitar tuner
×
Best way to learn
"Sol (no Tenes Perdón)"
Autoscroll
slow
fast
+/-
esc
set tempo
stop
 C           G           Am          F

e|-----------|-----------|-----------|-----------|
B|-----------|-----------|-----------|-----------|
G|-----0---0-|-----0---0-|-----0---0-|-----0---0-|
D|---2---2---|---2---2---|---2---2---|---2---2---|
A|-3---------|-----------|-0---------|-----------|
E|-----------|-3---------|-----------|-1---------|


C                      G                Am
Si no estaría atado a la tierra te iría a buscar.
F                               C            G
una vez soñé con tocar el cielo con las manos
Am
y encontrarte tan exorbitante,
F
dando besos por ahí.
C                      G                Am
si no te hubieras ido te cantaría esta canción
F                                        C
que un vez dudé en cantarte y me arrepentí.
         G
yo ya lo sé, suele pasar,
Am                                    F
pero ya no quiero escuchar tu historia de endulzar la vida.

Estribillo:
     C             G             F

e|-----------|-----------|-----------|
B|-----3---1-|-----3---0-|-----1---0-|
G|---0---0---|---0---0---|---2---2---|
D|-----------|-----------|-----------|
A|-3---------|-----------|-----------|
E|-----------|-3---------|-1---------|


C                         G
¿qué se puede esperar, si de golpe te vas?
F                           C             G           F
 ¿a quién le voy a reclamar, si me dejaste solo y sin corazón?

¡no tenés perdón!


C - G - Am - F x2

e|----------------------|--------------------------|
B|-5---5-3--5---5-6-5---|-5---5-3--5---5-6-5-------|
G|-5-5------5-5-------5-|-5-5------5-5-------5-----|
D|-5--------5-----------|-5--------5-----------2p3-|
A|-3--------3-----------|-3--------3---------------|
E|----------------------|--------------------------|

Este riff se va haciendo mientras canta. Si mi instinto musical no
falla, es anacrusico, osea como que se "adelanta" con
respecto a los tiempos (?)

D|-2p3-2p3-0-2-0---|
A|---------------3-|

C                       G
¿en qué estabas pensando corazón?
Am                     F
otra triste sensación en este mundo,
C                       G
que se empeña en mostrar mucho más dolor que amor.
Am                  F
al final, era como vos cantabas.
C
todo pasa,
G                            Am
si, se pasa pero no se olvida,
           F
y se extraña cada vez más.

Estribillo:
     C       G       F

e|-----------------------|
B|-----1-|-----1-|-----1-|
G|---0---|---0---|---2---|
D|-------|-------|-------|
A|-3-----|-------|-------|
E|-------|-3-----|-1-----|

C                      G
¿qué se puede esperar, si de golpe te vas?
F                          C              G            F
 ¿a quién le voy a reclamar, si me dejaste solo y sin corazón?
¡no tenés perdón!


C-G-Am-F x2

En esta parte, esto va más de fondo.

e|----------------------|----------------------|
G|-5---5-3--5---5-6-5---|-5---5-3--5---5-6-5---|
B|-5-5------5-5-------5-|-5-5------5-5-------5-|
D|-5--------5-----------|-5--------5-----------|
A|-3--------3-----------|-3--------3-----------|
E|----------------------|----------------------|

Am                  Em
si tuviera un minuto para hablarte
Am                  Em
y poder cantarte esta canción
G           F                 C              G
y sí, después vas a volver a ser el sol como siempre.

Estribillo:
C       G       F

e|-----------------------|
B|-----1-|-----1-|-----1-|
G|---0---|---0---|---2---|
D|-------|-------|-------|
A|-3-----|-------|-------|
E|-------|-3-----|-1-----|

C                      G
¿qué se puede esperar, si de golpe te vas?
F                          C              G               F
 ¿a quién le voy a reclamar, si me dejaste solo y sin corazón?
¡no tenés perdón!


Final: C-G-Am-F x2

e|------------------|----------------------|
B|-5---5-3--5-------|-5---5-3--5-----------|
G|-5-5------5-5-2-0-|-5-5------5-5-2-0-----|
D|-5--------5-------|-5--------5-----------|
A|-3--------3-------|-3--------3-----------|
E|------------------|----------------------|

Dudas al: 0800-bra jiji
Suggest correction
Give kudos to tab author, rate the tab!
1 2 3 4 5
comments
print report bad tab
guest
You may want to rate the tab now too:
select rating
Wanna post a correction for this tab? Suggest correction