Oops, an error
Loading. Please wait.

América Bass

32 views 1 this week
no commentswrite comment
1 2 3 4 5
3 more votes to show rating
add to favorites
launch autoscroll
font size
0
reset
guitar tuner
×
Best way to learn
"América"
Autoscroll
slow
fast
+/-
esc
set tempo
stop
00:02

Figura #1
---------------3---------------
----3------------2------------3
-----2---3----------0-3-3-2-0--
-------0---2-0-----------------

Figura #1

Figura #1

Figura #1


Figura #2
------0-1-1--3-3-1-1------
---3----------------------
--------------------------
--------------------------

figura #2
figura #2
figura #2
figura #2
figura #2

figura #1
figura #1
figura #1

figura #2
figura #2
figura #2
figura #2
figura #2

figura #1

y eso es todo vatos
Suggest correction
Give kudos to tab author, rate the tab!
1 2 3 4 5
comments
print report bad tab
guest
You may want to rate the tab now too:
select rating
Wanna post a correction for this tab? Suggest correction