Oops, an error
Loading. Please wait.

Círculo De Amor Bass

191 views 1 this week
no commentswrite comment
1 2 3 4 5
3 more votes to show rating
add to favorites
launch autoscroll
font size
0
reset
guitar tuner
×
Best way to learn
"Círculo De Amor"
Autoscroll
slow
fast
+/-
esc
set tempo
stop
Estaba escribiendo esta cancion para un compa que toca 
el bajo, y  note que no la tenian aqui. En realidad parece 
que la canción no lleva bajo! pero pueden tocar esto y se 
oye muy bien acompañando al circulo de sol 
(los riffs se repiten con el circulo):

s-slide

este es el riff principal (fijense en el ritmo de la guitarra):

G--------------------------------------------
D--------------------------------------------
A-10-10-10-9--------------------------------9  
E------------12-12-12-10-8-8-8-12-10-10-10---

en la parte antes de que diga 'solo besarte quisiera' toquen este riff:

G----------------------------------------------
D----------------------------------------------
A-10-10-10-9-------------------------------9-10
E------------12-12-12-10-8-8-8-12-10-12-10----- 

y se callan y luego vuelven a empezar con la riff principal 
en el tercer quSIera.(o sea despues de 8 tiempos.)


Cuando empieza la parte de 'Que lindos ojos tiene mi chata' 
tocan este riff con el circulo:

G-----------------------------------------
D-----------------------------------------
A-10-10-9--------------------------------9
E----------12--14-15-15s17--17-15-10--10--

y despues de que dice 'muero de amor' va el solo de acordeon y guitara, 
ustedes vuelvan al circulo principal (el primer riff).


El final: esto se toca en el ultimo circulo solo una vez:

G------------------------------------------
D------------------------------------------
A-10-10-10-9-------------------------------
E------------12-12-12-10-8-8--8-9-8-9-5-3--

y ya es todo, esta facil, nomas es acoplarse al ritmo de la guitarra y ya.
Suggest correction
Give kudos to tab author, rate the tab!
1 2 3 4 5
comments
print report bad tab
guest
You may want to rate the tab now too:
select rating
Wanna post a correction for this tab? Suggest correction