Oops, an error
Loading. Please wait.

Círculo De Amor Tab

version 2
version 2

Whole song

170 views 1 this week
no commentswrite comment
1 2 3 4 5
3 more votes to show rating
add to favorites
launch autoscroll
font size
0
reset
how to read this tab
guitar tuner
×
Best way to learn
"Círculo De Amor"
Autoscroll
slow
fast
+/-
esc
set tempo
stop
Aqui esta el famoso requinto de esta cancion q esta casi 
al final tengo 3 meses con guitarra, pero este requinto 
esta bien, PARA PODERLO TOCAR NECESITAS UN CAPO EN EL 
SEPTIMO TRASTE Y TOCAR EL CIRCULO DE DO 


1---0-1-3-1-0-------------------0-1-3-1-0---------
2-------------3-1-0-------0-1-3-----------3-1-0---
3-3-----------------2-0-2-------------------------
4-------------------------------------------------
5-------------------------------------------------
6-------------------------------------------------

1-3-1-0------5-3-1-0-----7-5-3-1-0---------------
2------3-1-0---------3-1-----------3-1-0-1-------
3------------------------------------------------
4------------------------------------------------
5------------------------------------------------
6------------------------------------------------

1-------------------0-1-3-5-7-8-10-8-7-8-7-5-7-5-
2-------------0-1-3------------------------------
3---------0-2------------------------------------
4---0-2-3----------------------------------------
5-3----------------------------------------------
6------------------------------------------------

1-3-5-3-1-1-0------0-3-1-0---1-0-----0------------
2----------------1---------3-----3-1---3-1-0-3-1--
3--------------2----------------------------------
4-------------------------------------------------
5-------------------------------------------------
6-------------------------------------------------

1---------------
2-0--1-0---0-1--
3--2-----2------
4---------------
5---------------
6---------------

esta conmadre el requinto, si hay errores diganme
antonio_v87@
Suggest correction
Give kudos to tab author, rate the tab!
1 2 3 4 5
comments
print report bad tab
guest
You may want to rate the tab now too:
select rating
Wanna post a correction for this tab? Suggest correction