Oops, an error
Loading. Please wait.

Círculo De Amor Tab

version 3
version 3

Whole song

59 views 1 this week
no commentswrite comment
1 2 3 4 5
3 more votes to show rating
add to favorites
×
Save as Personal and add changes to this tab that will be seen only by you. Learn more ›
×
You can save this tab as Personal to edit and correct it or add notes. All changes will be seen only by you. Learn more »
save as personal
new!
launch autoscroll
font size
0
reset
how to read this tab
guitar tuner
Autoscroll
slow
fast
+/-
esc
set tempo
stop
El Famoso Solo Aqui esta...100% Correcto

E|---7-8-10-8-7----------------------7-8-10-8-7----------------------------------|
B|-5------------10-8-7-------7-8-10-------------10-8-7---------------------------|
G|---------------------9-7-9-----------------------------------------------------|
D|-------------------------------------------------------------------------------|
A|-------------------------------------------------------------------------------|
E|-------------------------------------------------------------------------------|

E|-10-8-7--------12-10-8-7------14-12-10-8-7-------------------------------------|
B|--------10-8-7-----------10-8-------------10-8-7-8-----------------------------|
G|-------------------------------------------------------------------------------|
D|-------------------------------------------------------------------------------|
A|-------------------------------------------------------------------------------|
E|-------------------------------------------------------------------------------|

E|----------------------7-8-10-12-14-15-17-15-14-15-14-12-14-12-10-12-10-8-8-7---|
B|---------------7-8-10----------------------------------------------------------|
G|-----------7-9-----------------------------------------------------------------|
D|----7-9-10---------------------------------------------------------------------|
A|-10----------------------------------------------------------------------------|
E|-------------------------------------------------------------------------------|
                                                         G
E|-----7-10-8-7----8-7------7-------------------------|--3-----------------------|
B|---8----------10-----10-8---10-8-7-10-8-7---8-7---7-|--3-----------------------|
G|-9----------------------------------------9-----9---|--------------------------|
D|----------------------------------------------------|--------------------------|
A|----------------------------------------------------|--2-----------------------|
E|----------------------------------------------------|--3-----------------------|
 
No necesito que me digas que me quieres porque ya lo sé....


|--------------------------------------------------------------------------------|

Disfrutenlo =)
Suggest correction
Give kudos to tab author, rate the tab!
1 2 3 4 5
comments
print report bad tab
guest
Wanna post a correction for this tab? Suggest correction