Oops, an error
Loading. Please wait.

Círculo De Amor Tab

version 5
version 5

Whole song

64 views 1 this week
no commentswrite comment
1 2 3 4 5
3 more votes to show rating
add to favorites
launch autoscroll
font size
0
reset
how to read this tab
guitar tuner
×
Best way to learn
"Círculo De Amor"
Autoscroll
slow
fast
+/-
esc
set tempo
stop
Este es el VERDADERO requinto de Circulo de Amor. 
Necesita mucha velocidad para sonar como en la canción, 
DISFRÚTENLO!!!!

V = vibrato

1?-0--7--8--10--8--7-------------------------------7--8--10
2--------------------10--8--7-----------7--8--10-----------
3------------------------------9--7--9---------------------
4----------------------------------------------------------
5----------------------------------------------------------
6----------------------------------------------------------

1--10--8--7----------10--8--7---------12--10--8--7---------
2-----------10--8--7----------10--8--7-------------10--8---
3----------------------------------------------------------
4----------------------------------------------------------
5----------------------------------------------------------
6----------------------------------------------------------


1--14-12-10--8--7----------------------7-8-10-12-14-15-17-15
2----------------10v-------------7-8-10---------------------
3-----------------------------7-9---------------------------
4-----------------------7-9-10------------------------------
5---------------------10------------------------------------
6-----------------------------------------------------------


1-14-15-14-12-14-12-10-12-10-8-8-7v--7-10-8-7--8-7----7--------
2-----------------------------------8--------10---10-8--10-8-7-
3----------------------------------9---------------------------
4--------------------------------------------------------------
5--------------------------------------------------------------
6--------------------------------------------------------------


1------------------------
2-10-8-7-----8-7----8?7v-
3---------9-------9------
4------------------------
5------------------------
6------------------------


Favor de mandarme sus sugerencias a mi dirección de correo.
Suggest correction
Give kudos to tab author, rate the tab!
1 2 3 4 5
comments
print report bad tab
guest
You may want to rate the tab now too:
select rating
Wanna post a correction for this tab? Suggest correction