Oops, an error
Loading. Please wait.

Déjenme Si Estoy Llorando Tab

version 1
version 1

Whole song

275 views 1 this week
no commentswrite comment
1 2 3 4 5
2 more votes to show rating
add to favorites
launch autoscroll
font size
0
reset
how to read this tab
guitar tuner
Autoscroll
slow
fast
+/-
esc
set tempo
stop
Help us to improve Ultimate-Guitar.com Take our survey!
×
(#) = # de traste armonico.
Practiquenlo escuchando la cancion para agarrar bien el tiempo, está fácil.


|-----------------------|
|-(5)-(7)---------------|
|---------(7)-----------|
|-------------(7)-------|
|-----------------------|
|-----------------------|

|------------------------|
|---/10-10-10------------|
|-------------13-11-9-11-|
|------------------------|
|------------------------|
|------------------------|

|-----------------------|
|-----------------------|
|-11 11 11-9-------/11--|
|------------11-12------|
|-----------------------|
|-----------------------|

|---------------------------------------|
|---------------------------------------|
|-11 11 11-9-------/11-11-11------------|
|------------11-12----------------------|
|---------------------------------------|
|---------------------------------------|

|-----------------------|
|-----------------------|
|---------------11-11-9--------------11-11-9------------------------|
|--9-11-12-9-12---------11--------11----------9----------9-9---------|
|--------------------------12--12---------------11-11-12-----12-11-12|
|--------------------------------------------------------------------|

DEJENMEEEEEEEEEEEEEEEEEEEEEEEEE
Si estoy llorando.
Suggest correction
Give kudos to tab author, rate the tab!
1 2 3 4 5
comments
print report bad tab
guest
You may want to rate the tab now too:
select rating
Wanna post a correction for this tab? Suggest correction