Oops, an error
Loading. Please wait.

Déjenme Si Estoy Llorando Tab

version 3
version 3

Whole song

38 views 1 this week
no commentswrite comment
1 2 3 4 5
3 more votes to show rating
add to favorites
launch autoscroll
font size
0
reset
how to read this tab
guitar tuner
×
Best way to learn
"Déjenme Si Estoy Llorando"
Autoscroll
slow
fast
+/-
esc
set tempo
stop
Como es de ley a: NADIA AIDÉ MACHUCA GUERRERO
que la amo y la deseo

Este intro esta correcto chenquelo, hasta los
tiempos puse

e|----------------|-18----------|----------------|
B|----10-------10-|----18-16----|-10-10-10-9-7---|
G|-------12-12----|----------15-|--------------9-|
D|-12-------------|-------------|----------------|
A|-12-------------|-------------|----------------|
E|-10-------------|-------------|----------------|

e|---------------------|---------------|-------|
B|---------------------|---------------|-------|
G|-9-11-11-11-11-9-7-6-|-7-9-9-9-9-4-6-|-7-6-6-|
D|---------------------|---------------|-------|
A|---------------------|---------------|-------|
E|---------------------|---------------|-------|

e|-----------------|---------------------|
B|-----------------|---------------------|
G|--------------11-|-11-9-------------11-|
D|-9-11-12-9-12----|------11-------11----|
A|-----------------|---------12-12-------|
E|-----------------|---------------------|

e|-------------------|------------|
B|-------------------|------------|
G|-11-9--------------|------------|
D|------9----------9-|-9----------|
A|--------11-11-12---|---12-11-12-|
E|-------------------|------------|

Y el solo va asi

e|----------------|
B|-10-10-10-9-7---|
G|--------------9-|
D|----------------|
A|----------------|
E|----------------|

e|---------------------|---------------|-------|
B|---------------------|---------------|-------|
G|-9-11-11-11-11-9-7-6-|-7-9-9-9-9-4-6-|-7-6-6-|
D|---------------------|---------------|-------|
A|---------------------|---------------|-------|
E|---------------------|---------------|-------|


e|-----------------|---------------------|
B|-----------------|---------------------|
G|--------------11-|-11-9-------------11-|
D|-9-11-12-9-12----|------11-------11----|
A|-----------------|---------12-12-------|
E|-----------------|---------------------|

e|-------------------|------------|
B|-------------------|------------|
G|-11-9--------------|------------|
D|------9----------9-|-9----------|
A|--------11-11-12---|---12-11-12-|
E|-------------------|------------|
Suggest correction
Give kudos to tab author, rate the tab!
1 2 3 4 5
comments
print report bad tab
guest
You may want to rate the tab now too:
select rating
Wanna post a correction for this tab? Suggest correction