Oops, an error
Loading. Please wait.

Déjenme Si Estoy Llorando Tab

version 5
version 5

Whole song

89 views 1 this week
no commentswrite comment
1 2 3 4 5
3 more votes to show rating
add to favorites
launch autoscroll
font size
0
reset
how to read this tab
guitar tuner
×
Best way to learn
"Déjenme Si Estoy Llorando"
Autoscroll
slow
fast
+/-
esc
set tempo
stop
INTRO:

E-----------------------------------------------------
A-9/10-10-10-9----------------------------------------
D--------------11/9-9-9-11***-11-11-11-9--------------
g----------------------------------------11-9-11-11/12
b-----------------------------------------------------
e-----------------------------------------------------

E-----------------------------
A-----------------------------
D-----------------------------
g-9-9-9---------------11------
b-------11-9-11/12-12---------
e-----------------------------

ESTA PARTE ES LA QUE VA CON EL ACORDION PERO PUEDE IR
CON GUITARRA AUN QUE NO SE ESCUCHE BIEN

E--------------------------------------------------
A--------------------------------------------------
D--------------11-11-9---------------11-11-9-------
b-9-11-12-9-12---------11---------11---------9-----
g-------------------------12---12--------------11--
e--------------------------------------------------

E--------------------
A--------------------
D--------------------
b--------9-----------
g--11-12---12-11-12--
e--------------------
Suggest correction
Give kudos to tab author, rate the tab!
1 2 3 4 5
comments
print report bad tab
guest
You may want to rate the tab now too:
select rating
Wanna post a correction for this tab? Suggest correction