Oops, an error
Loading. Please wait.

Déjenme Si Estoy Llorando Bass

80 views 3 this week
no commentswrite comment
1 2 3 4 5
3 more votes to show rating
add to favorites
launch autoscroll
font size
0
reset
guitar tuner
×
Best way to learn
"Déjenme Si Estoy Llorando"
Autoscroll
slow
fast
+/-
esc
set tempo
stop
El chiste de esta rola es escucharla detenidamente 
para que puedas escuchar bien los arreglos y agarrar
bien los tiempos...

 INTRO
  F#m   D      A     D      A     E      A
G|------------|------------|------------|------------|
D|------------|------------|------------|------------|
A|------5-----|------5-----|-----5s7----|------------|
E|2-----------|5-----------|5-----------|7----7-5-4-5|

 Dejenme...
  F#m          D            A            D
G|------------|------------|------------|------------|
D|------------|------------|------------|------------|
A|99----99----|55-----55---|---------12s|3s5-3s5-3s5-|
E|------------|------------|55--55s12---|---5---5----|

  A            E            A            E 
G|------------|------------|------------|------------|
D|------------|------------|------------|2-----------|
A|------------|7---7---7---|------------|-2---2---2--|
E|5-0-5-0-5-0-|-7---7---7--|55--55--55--|--0---0---0-|

 Repite lo mismo toda la rola...

 Dudas preguntas o comentarios escribe a: laburka@
Suggest correction
Give kudos to tab author, rate the tab!
1 2 3 4 5
comments
print report bad tab
guest
You may want to rate the tab now too:
select rating
Wanna post a correction for this tab? Suggest correction