Oops, an error
Loading. Please wait.

Duerme Soñando Tab

version 1
version 1

Whole song

77 views 1 this week
no commentswrite comment
1 2 3 4 5
3 more votes to show rating
add to favorites
launch autoscroll
font size
0
reset
how to read this tab
guitar tuner
Autoscroll
slow
fast
+/-
esc
set tempo
stop
Help us to improve Ultimate-Guitar.com Take our survey!
×
e|-5--3--2--0-----
B|-7--5--3--1--3--
G|-------------4--
D|----------------
 Duer-me-so-ñan-do

e|--------5--5---5---5---3---2---0-------|
B|-3---5--7--7---7---7---5---3---1----3--|
G|-4---7------------------------------4--|
D|---------------------------------------|
  con-tus-o-jos-tan-ple-nos-des-pier-tos

e|--------5-5---5---5---3---2---0-------|
B|-3---5--7-7---7---7---5---3---1----3--|
G|-4---7-----------------------------4--|
D|--------------------------------------|
  con-tu-co-ra-zón-lle-noy-ra-dian-te
                                 D D  E  D D  E  D D  E D   
e|--3--2--0--|------0----0--2--|-5-5--7--5-5--7--5-5--7-5--|
B|--5--3--1--|--1------1----3--|-7-7--9--7-7--9--7-7--9-7--|
G|--------0--|--------------2--|-7-7--9--7-7--9--7-7--9-7--|
D|--------2--|--------------0--|-7-7--9--7-7--9--7-7--9-7--|
A|--------3--|-----------------|-5-5--7--5-5--7--5-5--7-7--|
Aluci-nan-te   tan lleno de amor

    D 
La vida, la vida, la vida, qué es la vida
                   C                   
en tratar de entenderla se nos va la propia vida
                  D
tan simple, tan fuerte, tan llanamente suerte
            C
lo que acontece en preparación de la muerte.
 D     
Pero es absurdo ocuparte de este estudio
     C
cada año, segundo a segundo,
            D
no es tan profundo dormir soñando
           C
es la respuesta, tal vez es errónea, tal vez es correcta
 D 
sueña a la par del presente y no del futuro
 C
porque de esto nunca estás tan seguro
  D
acaba tus enojos, así sí ya eres libre,
  C
afuera tus despojos, 
  D
llena tu maleta de responsabilidad
 C
deja para mañana tu personalidad
     D   
mas si tú sientes una contradicción 
     C
que el dormir te despierta y el despertar te duerme
      D
tal vez si lo dices no eres tan inteligente
     C
la gente sólo observa la ropa y los hechos
     D
mas nunca siente lo que hay dentro de sus pechos
     C
no existe entre ellos una real conexión
        D
pues creen tener siempre la razón
     C
la razón justa y procesadora
 D  
de lo correcto que se hace cada hora
 C
pero en este sueño tú estás sumergido
 D
mas no te sientas nunca afligido
 C
porque con este sueño tú estás protegido
   D
y aunque te sientas un poco distante
   C
tu alma lo dice a cada instante.

CORO

  D       G 
Duerme soñando
        D          C         G 
con tus ojos tan plenos despiertos 
        D        C         G
con tu corazón lleno y radiante
      C                    D  
alucinante, tan lleno de amor,
           C              D
lleno de amor, lleno de amor, 
           C     D
lleno de amor, hey!

(SOLO) (se repiten acordes del coro)

 D
La vida, la vida, la vida, qué es la vida
     C 
en tratar de entenderla se nos va la propia vida
    D 
La vida, la vida, la vida, qué es la vida
    C
en tratar de entenderla se nos va la propia vida
   D
No estoy tan convencido de vivir en esta vida
   C  
No estoy tan convencido de vivir en esta vida
   D
No estoy tan convencido de vivir en esta vida
   C
No estoy tan convencido de vivir...

(CORO) x2
           C  D D E D D E D
lleno de amor............hey! 
================================
    C  D  G  E 
e|--3--5--3--7-----
B|--5--7--4--9-----
G|--5--7--5--9-----
D|--5--7--5--9-----
A|--3--5--3--7-----
E|--3--5--3--7-----
Suggest correction
Give kudos to tab author, rate the tab!
1 2 3 4 5
comments
print report bad tab
guest
You may want to rate the tab now too:
select rating
Wanna post a correction for this tab? Suggest correction