Oops, an error
Loading. Please wait.

Lo Que No Fue No Será Tab

40 views 1 this week
no commentswrite comment
1 2 3 4 5
3 more votes to show rating
add to favorites
launch autoscroll
font size
0
reset
how to read this tab
guitar tuner
Autoscroll
slow
fast
+/-
esc
set tempo
stop
Help us to improve Ultimate-Guitar.com Take our survey!
×
SOLO

Va el requinto, apréndanselo bien porque va rápido...
|--------------------------------------------------------------------|
|--------------------------------------10-10-10----------------------|
|--9-10--10h12---9-10--10h12---9-10-12------------12-10-12v----------|
|--------------------------------------------------------------------|
|--------------------------------------------------------------------|
|--------------------------------------------------------------------|

|--------------------------------------------------------------------|
|--------------------------------------10-10-10------------10--------|
|--9-10--10h12---9-10--10h12---9-10-12------------12-10-12-----------|
|--------------------------------------------------------------------|
|--------------------------------------------------------------------|
|--------------------------------------------------------------------|

|---------------------------------10-12-13--13\15----15--15-15-------|
|------------------------10-12-13------------------------------------|
|-12\10\9s---9-10-12---12--------------------------------------------|
|--------------------------------------------------------------------|
|--------------------------------------------------------------------|
|--------------------------------------------------------------------|

|-------------------------------------------------12-13-15-15--13-15-|
|-13-13-12h13--12h13/12------------------12-13-15--------------------|
|-----------------------14-14-12---12-14-----------------------------|
|--------------------------------------------------------------------|
|--------------------------------------------------------------------|
|--------------------------------------------------------------------|

|-15-15-15-15-15-15-15-15-15-15-15-15-15-15\17-17-17--15-15-15-13-13-|
|--------------------------------------------------------------------|
|--------------------------------------------------------------------|
|--------------------------------------------------------------------|
|--------------------------------------------------------------------|
|--------------------------------------------------------------------|

|-13-12-12-12-----15-15-15-15-15-15-15-15-15-15-15-15-15-15\17-17-17-|
|-------------13-----------------------------------------------------|
|--------------------------------------------------------------------|
|--------------------------------------------------------------------|
|--------------------------------------------------------------------|
|--------------------------------------------------------------------|

|-15-15-15-----13\15---13-12-12\13-12~~~~~~~~------------------------|
|----------13---------------------------15-12---15-12--15-12---13\12-|
|--------------------------------------------------------------------|
|--------------------------------------------------------------------|
|--------------------------------------------------------------------|
|--------------------------------------------------------------------|

|-------------12-13-13\15-15---13h15---13-15-13--12-13-12-----12-----|
|---15-15--------------------------------------------------15---15---|
|--------------------------------------------------------------------|
|--------------------------------------------------------------------|
|--------------------------------------------------------------------|
|--------------------------------------------------------------------|

|------------------------------------|
|--13-15-13---12-13-12---10-12-10\5--|
|------------------------------------| disminuye el volumen y se pierde  
|------------------------------------| el solo con la voz y el acordeón
|------------------------------------|
|------------------------------------|
Suggest correction
Give kudos to tab author, rate the tab!
1 2 3 4 5
comments
print report bad tab
guest
You may want to rate the tab now too:
select rating
Wanna post a correction for this tab? Suggest correction