Oops, an error
Loading. Please wait.

Tonta Canción De Amor Bass Tab

173 views 9 this week
no commentswrite comment
1 2 3 4 5
3 more votes to show rating
add to favorites
launch autoscroll
font size
0
reset
guitar tuner
×
Best way to learn
"Tonta Canción De Amor"
Autoscroll
slow
fast
+/-
esc
set tempo
stop
asi va  toda la cancion

            esto es desde el principio
G-----------------------------------------------
D---------3-4---3-4---------3-5-5-5-5-5--3/4\3--
A-3---3-4-----3-----3---3-4---------------------
E---3-----------------3-------------------------


coro
G---------------------------------
D---------------------------------
A---------------------------------
E--3-3-3-3-3-3-3-3-5-5-5-5-5-5-5-5-3-3-3-3-3-3-3-3

G----------------------------
D----------------------------
A------------5/7-5---------------
E--5-5-5-5-5-------7-3-3-3-3-3-3-3-3- 1-1-1-1-1-1-1-1-3-3-3-3-3-3-0-3

Y ASI VA TODA LA CANCION
Suggest correction
Give kudos to tab author, rate the tab!
1 2 3 4 5
comments
print report bad tab
guest
You may want to rate the tab now too:
select rating
Wanna post a correction for this tab? Suggest correction