Oops, an error
Loading. Please wait.

Tonta Canción De Amor #13 Tab

55 views 1 this week
no commentswrite comment
1 2 3 4 5
3 more votes to show rating
add to favorites
launch autoscroll
font size
0
reset
how to read this tab
guitar tuner
×
Best way to learn
"Tonta Canción De Amor #13"
Autoscroll
slow
fast
+/-
esc
set tempo
stop
Bueno para mi esta es la mejor cancion de su nuevo disco, y espero les guste como suena,
y si les les gusta como suena pues haganmelo saber o si tambien la mejoran diganme tambien..

Bueno este es sl solo que suena casi a la mitad de la cancion.....


e15-14-15-14-13-12-10-15v-14-15-14-13-12-10-----------------------------------------15---------
B------------------------------------------12-13-12-12-12-13-12-12-10-12-13-12-12-12--12-13-12-10
G------------------------------------------------------------------------------------------------

e-------------------------------------------------------
B-----12-13-13/15-13-12-13-13/14-13-12-13-13/15-13-12-11
G13-14--------------------------------------------------12

e15-14-15-14-13-12-10-15v-14-15-14-13-12-10---------------------------------------------------
B------------------------------------------12-13-----------12-13-13/15-13-12-13/14-13-12-13/15
G-----------------------------------------------13-14-15-16-----------------------------------

e----------------------------------
B13-12-13/14-13-12-13/15-13-12-11--
G--------------------------------12


Acordes:

C, Em, Am

Intro: C, Em, C, Am x2


Hagan silencio, que esoy soñando 

       C             Em  C Am  C         Em
Sueño que brinco el rio, sueño que te sonrio
C               A   C      Em  C         Am
Y al despertar, tu estas dormida y tu quietud
C              Em   C      Am
Da calma a mi vida, por favor, no tapes mas 

El espejo, que estoy soñando

C, Em, C, Am  x2
Em, Am, Em    x2
C, Em, Am     x2

       C            Em   C Am   C          Em
Sueño que somos felices, sueño que me sonries
C           Am  C          Em    C 
Y al despertar, estas a mi lado y yo
   Am      C      Em        C        Am
Recuerdo cuanto te he amado, por favor, no

Tapes mas el espejo, que estoy soñando

C   Em  C         Am   C Em   C         Am
Sueño que voy volando, sueño del cielo abajo
C          Em      C        Am   C
Y estas conmigo, aquí a mi lado tus dulces 
Em     C          Am
Labios me estan besando


       C             Em  C Am   C        Em
Sueño que brinco el rio, sueño que te sonrio
C          Am      C           Em  C         Am
Y al despertar, tu estas dormida y tu quietud
C               Em   C     Am   C         Em
Da calma a mi vida, por favor, no tapes mas 
   C  Am
El espejo, que estoy soñando


Bueno espero les haya gustado esta cancion heeeeeee........
Esta dedicada a todas las personas a Laura, Pancho, Lesli, Tanhei, wiso ya que
todos empezamos un nuevo camino y a todos
no crean que me he olvidado heeee hasta pronto
Suggest correction
Give kudos to tab author, rate the tab!
1 2 3 4 5
comments
print report bad tab
guest
You may want to rate the tab now too:
select rating
Wanna post a correction for this tab? Suggest correction