Oops, an error
Loading. Please wait.

Conversión Bass

by Grass
14 views 1 this week
no commentswrite comment
1 2 3 4 5
3 more votes to show rating
add to favorites
launch autoscroll
font size
0
reset
guitar tuner
×
Best way to learn
"Conversión"
Autoscroll
slow
fast
+/-
esc
set tempo
stop
ESTA CANCION SE TOCA EN REALIDAD CON UN BAJO DE 5 
CUERDAS PERO ESTO ES PARA UNO DE 4 (es igual pero 
no suena tan trallero).

                    INTRO 
g-----------------------------------------
d-----------------------------------------
a-----33----5--6-----33------5--6---------       
e-----------------------------------------


                    RIFF 1
g----------------------------------------
d----------------------------------------
a------4--3--4--3--4--3--4--3-----6------       x8
e----------------------------------------
                    

                    RIFF 2
g-----------------------------------------------
d-----------------------------------------------
a----33333333------------6---888888---6--------- x9
e--------------44444444-------------------------


                    estribillo

g---------------------------------------------------
d---------------------------------------------------
a----------------------------------------666--------
e-----4444444444-------66666-------888----------6---


ORDEN

INTRO--RIFF1---RIFF2----ESTRIBILLO---RIFF1---RIFF2-----
RIFF3-----ESTRIBILLO----INTRO----RIFF2-----ESTRIBILLO--
RIFF1.
Suggest correction
Give kudos to tab author, rate the tab!
1 2 3 4 5
comments
print report bad tab
guest
You may want to rate the tab now too:
select rating
Wanna post a correction for this tab? Suggest correction