Oops, an error
Loading. Please wait.

Te Sueño Tab

8 views 1 this week
no commentswrite comment
1 2 3 4 5
3 more votes to show rating
add to favorites
×
Save as Personal and add changes to this tab that will be seen only by you. Learn more ›
×
You can save this tab as Personal to edit and correct it or add notes. All changes will be seen only by you. Learn more »
save as personal
new!
launch autoscroll
font size
0
reset
how to read this tab
guitar tuner
Autoscroll
slow
fast
+/-
esc
set tempo
stop
____ acordes _____
|                |
| G:     320033  |
| A:     002220  |
| D:     000232  |
| Bm:    224432  |
|________________|

vídeo disponible en:


[intro]:
                         G                    A
e-||--------------------|--------------------|--------------------|
B-||--------7--7h8--10--|7s5-----------------|--------------------|
G-||----7-9-------------|-----7----------7--7h9 -----------7---9--|
D-||7-9-----------------|-------------9------|--------------------|
A-||--------------------|--------------------|--------------------|
E-||--------------------|--------------------|--------------------|

    D                    G
e-||--------------------|--------------------|
B-||7-------7h8--7------|--------------------|
G-||---7-------------7--|---------------7-9-9s
D-||------7-------------|9----------7-9------|
A-||--------------------|--------------------|
E-||--------------------|--------------------|

    D                    A                    D        G     D
e-||--------------------|--------------------|--------------------|
B-||--------------------|--------7---7-------|---------8-7--------|
G-||11------9s11--9--7-7h9---------------9---|7------------9-7----|
D-||--------------------|--------------------|--------------------|
A-||--------------------|--------------------|--------------------|
E-||--------------------|--------------------|--------------------|


    D           A                   Bm
Cansado de los besos que nunca nos damos,
        G        A        D
De los días que nunca llegaron,
       A                    Bm
Del sabor de esta copa, cansado,
       G        A      D
De la vida que pasa volando.

    D           A                      Bm
Y siento como quema este fuego en mi cuerpo
       G        A         D
A qué sabe el olor del deseo
      A                    Bm
Cada vez que me robas por dentro
       G         A       D
Este trozo tan lleno de ti.

      D           A                    Bm
Te quiero aunque nunca encuentre el momento
        G           A           D
De abrazarme a tu cuerpo y te sueño
       A                  Bm
Como sueña esta cama tu cuerpo
       G       A        D
Como grita la vida por ti.


G                  A                   D(v)        D(v): variación
   Y mientras te sueño tú no estás conmigo               D
G               A                     D(v)            e||2----3----2----0----|
   Y yo por la noches siempre tengo frío              B||3----3----3----3----|
G                 A                     D(v)          G||2----2----2----2----|
   Será que esta boca que tanto has querido           D||--------------------|
G               A                    D(v)             A||--------------------|
   Se muere de ganas al no estar contigo.             E||--------------------|


[intro] (sólo primera parte)


      D            A               Bm
Fracasado, por no saber leerte despacio,
      G         A           D
Este libro que tanto has soñado,
       A                     Bm
Estas hojas que tanto has mirado,
        G        A        D
En mi cuento de nunca acabar.

      D            A                    Bm
Te quiero, aunque nunca encuentre el momento
        G           A           D
De abrazarme a tu cuerpo y te sueño
       A                   Bm
Como sueñan mis manos tu cuerpo,
       G          A       D
Como agarro un pedazo de ti.


G                  A                   D(v)
   Y mientras te sueño tú no estás conmigo
G               A                     D(v)
   Y yo por la noches siempre tengo frío
G                 A                     D(v)
   Será que esta boca que tanto has querido
G               A                    D(v)
   Se muere de ganas al no estar contigo.
(x2)


G               A                    D
   Se muere de ganas al no estar contigo.


[intro]


###---------------------------------------###
### Tablatura de:          Enrique Moraño ###
### Sevilla [España]  emorano@ ###
### para         ENE-2013 ###
###---------------------------------------###
Suggest correction
Give kudos to tab author, rate the tab!
1 2 3 4 5
comments
print report bad tab
guest
Wanna post a correction for this tab? Suggest correction